woher kriege ich voodoo chile her?

von Lambado1, 26.12.06.

  1. Lambado1

    Lambado1 Registrierter Benutzer

    Im Board seit:
    20.07.06
    Zuletzt hier:
    2.03.07
    Beiträge:
    72
    Zustimmungen:
    0
    Kekse:
    10
    Erstellt: 26.12.06   #1
    hi

    Weiss jemand wo ich tabs für voodoo chile von jimi hendrix bekomme??
    Nicht voodoo child (slight return) sondern voodoo chile!!!!!!

    Ach ja bei ultimate-guitar gibt es zwar voodoo chile jedoch haben die verfasser es vertauscht alles dort ist voodoo child.

    Mfg Lambado
     
  2. Kartoffelsalat1

    Kartoffelsalat1 Registrierter Benutzer

    Im Board seit:
    12.08.04
    Zuletzt hier:
    18.03.12
    Beiträge:
    549
    Zustimmungen:
    0
    Kekse:
    81
    Erstellt: 26.12.06   #2
  3. Lambado1

    Lambado1 Threadersteller Registrierter Benutzer

    Im Board seit:
    20.07.06
    Zuletzt hier:
    2.03.07
    Beiträge:
    72
    Zustimmungen:
    0
    Kekse:
    10
    Erstellt: 27.12.06   #3
    hey du 9 mal kluger das ist voodoo child (slight return) jedoch wurde es falsch benannt!!! voodoo chile (slight return)!!!

    würdest du dir mal voodoo child (slight return) anhören wüsstest du das es das ist und nicht voodoo chile !!!!
     
  4. Kurac

    Kurac Registrierter Benutzer

    Im Board seit:
    05.07.04
    Zuletzt hier:
    5.06.11
    Beiträge:
    3.105
    Zustimmungen:
    3
    Kekse:
    6.408
    Erstellt: 27.12.06   #4
    Kein Grund hier gleich beleidigend zu werden. Er wollte doch nur helfen. ;)

    mfg
     
  5. bumby

    bumby Registrierter Benutzer

    Im Board seit:
    01.08.06
    Zuletzt hier:
    27.01.09
    Beiträge:
    178
    Ort:
    Dachau
    Zustimmungen:
    0
    Kekse:
    71
    Erstellt: 03.01.07   #5
    voodoo child und voodoo chile... manche leute glauben solange nicht, dass es nicht das gleiche ist, bis man ihnen die orignal platte hinträgt^^.
    ich hab von dem ganzen album noch ne .pdf mit tabs und noten. werds gleichhochladen

    edit: fuck sry, hab vergessen das album mit auf dvd zubrennen bevor ich den pc platt gemacht habe. tut mir leid.

    aber wenn ich s irgendwo her kriege, dann erinnere ich mich (hoffentlich) an dich
     
  6. Speckie

    Speckie Registrierter Benutzer

    Im Board seit:
    14.06.06
    Zuletzt hier:
    15.03.08
    Beiträge:
    210
    Zustimmungen:
    1
    Kekse:
    10
    Erstellt: 03.01.07   #6
    Servus,

    das könnte Dir evtl. weiterhelfen:


    Voodoo Chile (Slight Return) - Jimi Hendrix
    ~~~~~~~~~~~~~~~~~~~~~~~~~~~~ ~~~~~~~~~~~~
    ****INTRO****

    E-|-----|
    B-|-----|
    G-|-x-x-|
    D-|-x-x-|
    A-|-x-x-|
    E-|-----|


    E-|-----------------------------------------|---------------------------------|
    B-|-----------------------------------x-x-x-|---------------------------------|
    G-|-/9-7---7-------------/9-7---9-9-7-x-x-x-|-/9-7---7-----------/9-7--9-9----|
    D-|------9---5-5-7-5----------9-------x-x-x-|------9---5-5-7-5-------9--------|
    A-|------------------7----------------x-x-x-|------------------7--------------|
    E-|-----------------------------------------|------------------------------0--|


    E-|-----------------------------------------|---------------------------------|
    B-|-----------------------------------x-x-x-|---------------------------------|
    G-|-/9-7---7-------------/9-7---9-9-7-x-x-x-|-/9-7---7-----------/9-7---7-----|
    D-|------9---5-5-7-5----------9-------x-x-x-|------9---5-5-7-5--------9-------|
    A-|------------------7----------------x-x-x-|------------------7--------------|
    E-|-----------------------------------------|---------------------------------|


    E-|---------------|
    B-|-/12-12-10-8---|
    G-|-------------9-|
    D-|---------------|
    A-|---------------|
    E-|---------------|


    E-|------------------------------------3--------------------------------------|
    B-|------------------------------------3--------------------------------------|
    G-|----2b3b2p0-------------2b3b2p0--------14b15b14b15b14-12---14-12\2---------|
    D-|--2---------2---------2---------2------------------------------------------|
    A-|--2---------2---------2---------2------------------------------------------|
    E-|-\0---------0-0-3-0---0---------0-0----------------------------------------|


    E-|------------------------------------------------|
    B-|------------------------------------------------|
    G-|---------2b4b(real-slow-back-down-to-2)-2b3b2p0-|
    D-|-2----------------------------------------------|
    A-|-2----------------------------------------------|
    E-|-0-0-3-0----------------------------------------|

    | |
    | E-|--------------------|-----------3-3-| |
    | B-|--------------------|-----------3-3-| |
    | G-|------------2b3b2p0-|---------------| |
    | D-|-2-----2------------|-2-----2-------| |
    | A-|-2-----2------------|-2-----2-------| |
    | E-|-0-0-3-0--0---------|-0-0-3-0-0-----| |
    |

    E-|-------------------------------------------------------|
    B-|-------------------------------------------------------|
    G-|-------0-----------------------------------------------|
    D-|---0-2---2p0----0-h2-------------0---0h2-0---0h2p0-----|
    A-|-2-----------h2----------------2---2-------2-----------|
    E-|-----------------------0-3-0-----------------------3-0-|
    I stand up...

    E-|---------------------------------------------------------|
    B-|-----0---------------------------------------------------|
    G-|---0-----0h2-2-0-0h2p0-----------------------------------|
    D-|-2-----2---------------2-----------0---0h2-0---0h2p0-----|
    A-|---------------------------------2---2-------2-----------|
    E-|-------------------------0-3-0-----------------------3-0-|

    E-|---------------------------------|
    B-|---------------------------------|
    G-|-4-4-4-4-4-4-4-4-2-2-2-2-2-2-2-2-|
    D-|-0-0-0-0-0-0-0-0-0-0-0-0-0-0-0-0-|
    A-|-5-5-5-5-5-5-5-5-4-4-4-4-4-4-4-4-|
    E-|---------------------------------|

    E-|---------------------------------|
    B-|---------------------------------|
    G-|-3-3-3-3-3-3-3-3-5-5-5-5-5-5-5-5-|
    D-|-2-2-2-2-2-2-2-2-4-4-4-4-4-4-4-4-|
    A-|-3-3-3-3-3-3-3-3-5-5-5-5-5-5-5-5-|
    E-|---------------------------------|
    Cos i'm a voodoo...

    E-|-------------------------|
    B-|-15b17-15b17b15-12-15b17-|
    G-|-------------------------|
    D-|-------------------------|
    A-|-------------------------|
    E-|-------------------------|

    MFG
     
  7. Lambado1

    Lambado1 Threadersteller Registrierter Benutzer

    Im Board seit:
    20.07.06
    Zuletzt hier:
    2.03.07
    Beiträge:
    72
    Zustimmungen:
    0
    Kekse:
    10
    Erstellt: 04.01.07   #7
    ehm danke jedoch ist das genau das falsche das ist vodoo child slight return ich such voodoo chile!!!!
    ach und bei diesem tab ist ziemlich viel falsch!!!
    aber trotz thx wenn jemand tab zu VOODOO ---> CHILE <--- hat bitte reinstellen!

    MFG LAMBADO
     
  8. s!d

    s!d Registrierter Benutzer

    Im Board seit:
    02.10.04
    Zuletzt hier:
    17.11.16
    Beiträge:
    1.724
    Ort:
    Mainz
    Zustimmungen:
    18
    Kekse:
    3.080
    Erstellt: 05.01.07   #8
    Kann mir kurz jemand den generellen Unterschied der beiden Lieder erklären? Dachte auch immer das wäre das selbe...

    Sind das nur minimale Unterschiede?
     
  9. Sparky

    Sparky Registrierter Benutzer

    Im Board seit:
    18.06.06
    Zuletzt hier:
    8.06.08
    Beiträge:
    47
    Zustimmungen:
    0
    Kekse:
    57
    Erstellt: 05.01.07   #9
    Voodoo Child dauert 5:13 während
    Voodoo Chile 15:00 lang ist, wobei ein langer Improvisationsteil enthalten ist.

    Die beiden Lieder hören sich komplett anders an und haben dementsprechend nichts gemeinsam. "Feeling" + Rythmik + Lyrics etc. sind nicht im entferntesten ähnlich.

    Hörproben findets du z.B auf Amazon (Amazon.de: Electric Ladyland: Musik: Jimi Hendrix)


    @Topic: Zu Voodoo Chile habe ich leider noch nie Tabs gesehen, sry.
     
  10. Fragx

    Fragx Registrierter Benutzer

    Im Board seit:
    22.07.05
    Beiträge:
    140
    Zustimmungen:
    0
    Kekse:
    398
    Erstellt: 05.01.07   #10
    Ich habe die einzige mir bekannte Tab-Version des Songs mal als Text-Datei in den Anhang gepackt. Die selbe Version gab es vor ca. 2 1/2 Jahren auch mal auf Ultimate-Guitar (ich speichere die jeweilige Tab-Seite immer als HTML-Datei ab, deswegen konnte ich noch das genau Datum herausfinden); sogar unter dem richtigen Namen "Voodoo Chile"; nur ist die diese wohl aus irgendwelchen Gründen nicht mehr verfügbar.
     

    Anhänge:

  11. Lambado1

    Lambado1 Threadersteller Registrierter Benutzer

    Im Board seit:
    20.07.06
    Zuletzt hier:
    2.03.07
    Beiträge:
    72
    Zustimmungen:
    0
    Kekse:
    10
    Erstellt: 05.01.07   #11
    hi!

    danke!! Prob: Wenn man es öffnet ist es beim Editor quer, also nix erkennbar !! Haste es vielleicht auch als GP Datei?
     
  12. Sparky

    Sparky Registrierter Benutzer

    Im Board seit:
    18.06.06
    Zuletzt hier:
    8.06.08
    Beiträge:
    47
    Zustimmungen:
    0
    Kekse:
    57
    Erstellt: 05.01.07   #12
    Öffne es mit WordPAd, nicht mit dem Texteditor.
     
  13. Fingers Freddy

    Fingers Freddy Registrierter Benutzer

    Im Board seit:
    28.08.05
    Zuletzt hier:
    9.01.16
    Beiträge:
    739
    Ort:
    Dachau, Bayern
    Zustimmungen:
    84
    Kekse:
    5.234
    Erstellt: 06.01.07   #13
    Zur allgemeinen Erklärung:

    Voodoo Chile (Slight Return) ist das was wir wohl alle kennen - der schnelle Rocksong.

    Voodoo Chile (auch manchmal Voodoo Chile Blues genannt) ist ein langsamer, treibender Bluessong, sozusagen ein bisschen Muddy Waters auf LSD.
     
  14. Sparky

    Sparky Registrierter Benutzer

    Im Board seit:
    18.06.06
    Zuletzt hier:
    8.06.08
    Beiträge:
    47
    Zustimmungen:
    0
    Kekse:
    57
    Erstellt: 06.01.07   #14
    Wenn es mir möglich ist, würde ich den Thread auch für eine Suche missbrauchen ;)

    Hat einer ein Tab zu Sossego von Robin Finck? Das suche ich seit Ewigkeiten ohne Erfolg :(
     
  15. Maxi

    Maxi Registrierter Benutzer

    Im Board seit:
    04.09.05
    Zuletzt hier:
    8.12.16
    Beiträge:
    3.849
    Zustimmungen:
    350
    Kekse:
    5.099
    Erstellt: 06.01.07   #15
    suche seit langem nen vernünftigen tab zu Casels made of sand... GP wenn möglich"!
     
  16. Sparky

    Sparky Registrierter Benutzer

    Im Board seit:
    18.06.06
    Zuletzt hier:
    8.06.08
    Beiträge:
    47
    Zustimmungen:
    0
    Kekse:
    57
    Erstellt: 06.01.07   #16
    Doppelpost - Bitte löschen.
     
  17. Sparky

    Sparky Registrierter Benutzer

    Im Board seit:
    18.06.06
    Zuletzt hier:
    8.06.08
    Beiträge:
    47
    Zustimmungen:
    0
    Kekse:
    57
    Erstellt: 06.01.07   #17
    Ist leider kein GP-Tab, jedoch aus dem einem "offiziellen" Hendrix-Songbook eingescannt (war ne ******arbeit ^^), weshalb es korrekt sein sollte...

    [​IMG]
     
  18. Lambado1

    Lambado1 Threadersteller Registrierter Benutzer

    Im Board seit:
    20.07.06
    Zuletzt hier:
    2.03.07
    Beiträge:
    72
    Zustimmungen:
    0
    Kekse:
    10
    Erstellt: 06.01.07   #18
    Ehm *hust* willste mich vielleicht verars..en?

    Das ist das Lied "CASTLE MADE OF SAND" VON " JIMI HENDRIX".
    Du bist nicht der einzigste der das "offizielle" Songbuch hat!!
    Und als Info das ist nicht das "offizielle".
     
  19. Sparky

    Sparky Registrierter Benutzer

    Im Board seit:
    18.06.06
    Zuletzt hier:
    8.06.08
    Beiträge:
    47
    Zustimmungen:
    0
    Kekse:
    57
    Erstellt: 06.01.07   #19
    Vlt. überdenkst Du mal deine Reaktion. Meiner Meinung nach ist sie ein bischen unverschämt für die Mühen, die ich auf mich genommeh habe.
     
  20. Lambado1

    Lambado1 Threadersteller Registrierter Benutzer

    Im Board seit:
    20.07.06
    Zuletzt hier:
    2.03.07
    Beiträge:
    72
    Zustimmungen:
    0
    Kekse:
    10
    Erstellt: 06.01.07   #20
    meine Reaktion war vollkommen korrekt!
    Denn man kann es nicht überlesen das ich voodoo chile will!!!
    es wurden auch viele sachen wie voodoo child (slight return) reingestellt!!
    dann muss dir auch in klaren sein das ich nicht castel... will!
    hättest du die überschrift mit eingescannt(die schrift größe beträgt mindsten 18)
    wüssten alles das es nicht voodoo chile ist!!!
    und deine mühe Hallo das sind mind. 3 seiten die haste in höstens 5 min eingescannt ,so eine mühe ;)

    naja nur noch als info für die anderen ich will nicht CASTLE MADE OF SAND oder VOODOO CHILD (SLIGHT RETURN) sondern ich möchte gerne eine gp für VOODOO CHILE
     
Die Seite wird geladen...

mapping