Zählen bei RHCP-Snow

von radiokopf86, 06.02.08.

  1. radiokopf86

    radiokopf86 Registrierter Benutzer

    Im Board seit:
    19.01.07
    Zuletzt hier:
    6.07.12
    Beiträge:
    18
    Zustimmungen:
    0
    Kekse:
    18
    Erstellt: 06.02.08   #1
    Moin,

    ich hab da mal ne komische frage ich spiel derzeit snow von den chilli peppers bei 100bpm
    und das sind 16tel aber ich denk da in 1 2 3 4 nur das da keine mißverständnisse aufkommen.

    bei 3 ist bei mir der hammer on/ pull off also da hau ich drauf.

    jetzt hör ich mir gerade die single an und irgendwie hört sich das an als würd der auf 1 hämmer ??? das wäre aber komisch da der song dann ja auf 3 anfängt ?

    kann mir wer helfen ?
    danke
     
  2. Bassistenschwein

    Bassistenschwein Helpful & Friendly User HFU

    Im Board seit:
    24.04.05
    Zuletzt hier:
    15.10.16
    Beiträge:
    1.555
    Zustimmungen:
    115
    Kekse:
    5.242
    Erstellt: 06.02.08   #2
    Wenn ich dich richtig verstanden habe hast du da was falsch verstanden :D
    Die Gitarre spielt sechzehntel, das dürfte stimmen. Allerdings kommt der Hammer on/Pull off (und damit die Betonung) demnach nicht auf die 3 sondern auf die 2. Ich vermute mal du zählst einfach falsch. Wenn du dich am Schlagzeug orientierst sind 1 und 3 immer die Bassdrumschläge, 2 und 4 die Snare.
     
  3. radiokopf86

    radiokopf86 Threadersteller Registrierter Benutzer

    Im Board seit:
    19.01.07
    Zuletzt hier:
    6.07.12
    Beiträge:
    18
    Zustimmungen:
    0
    Kekse:
    18
    Erstellt: 06.02.08   #3
    hmmm... auf 2 ? mit dem schlagzeug hören hab ichs nicht so, irgendwie hört sich das komisch an bei snow. aber auf 2 ? das hört sich komisch an...
    ich schreibs mal auf:

    normal:
    1....................2....................3.......................4
    bei mir:
    1...2.....3....4.|.1.....2....3...4|..1....2....3..4.|..1.......2......3...4
    -----------------------------------------------------------------------I
    -----------------------------------------------------------------------I
    ----4---464---4------4---464--4--------------------------6---686--7-I
    --6---6------6-----6---6-----6--------4---464---4-----8---8------8-I
    6-----------------7------------------6---6-----6---6/9---------------I
    ------------------------------------7-----------------------------------I

    ich hoff mal das man das erkennen kann.
    irgendwo hab ich das auch mal als 2 takte gesehen.
     
  4. Bassistenschwein

    Bassistenschwein Helpful & Friendly User HFU

    Im Board seit:
    24.04.05
    Zuletzt hier:
    15.10.16
    Beiträge:
    1.555
    Zustimmungen:
    115
    Kekse:
    5.242
    Erstellt: 06.02.08   #4
    ich habs mit tabs zwar nicht so (davon abgesehen, dass ich noch nicht mal Gitarrist bin^^) aber ich versuchs mal mit deinen zu erklären.

    1........2..........3...........4........|1........2.........3..............4.....|
    --------------------------------------------------------------------------I
    --------------------------------------------------------------------------I
    ----4---464---4------4---464--4--------------------------6---686--7-I
    --6---6------6-----6---6-----6--------4---464---4-----8---8------8--I
    6-----------------7------------------6---6-----6---6/9-----------------I
    ------------------------------------7-------------------------------------I

    So wie du zählst wären das alles Achtel und keine Sechzehntel (wenn man davon ausgeht, dass du die Viertel zählst).

    EDIT:
    jop so ist es, das war wohl dein Fehler. hatte ich grade überlesen...;)
     
  5. Schrax

    Schrax Registrierter Benutzer

    Im Board seit:
    03.01.05
    Zuletzt hier:
    23.11.16
    Beiträge:
    422
    Ort:
    Klosterneuburg
    Zustimmungen:
    11
    Kekse:
    1.016
    Erstellt: 07.02.08   #5
    Yupp- genau so wird bei Snow richtig gezählt!
     
Die Seite wird geladen...

mapping