Der Pate -Titel musik bass tabs

von Sergeant Rabbit, 15.10.06.

  1. Sergeant Rabbit

    Sergeant Rabbit Registrierter Benutzer

    Im Board seit:
    07.07.06
    Zuletzt hier:
    5.11.13
    Beiträge:
    138
    Ort:
    Gladbeck
    Zustimmungen:
    1
    Kekse:
    32
    Erstellt: 15.10.06   #1
    Hallo ein freund hat mir von der pate die titel musik alls tabs aufgeschrieben
    leider kennt und kann er nicht mehr so das ende vom titel lied ;)

    hier sind die tabs >

    g|--10-13-12-10-13-10-12-10---------------
    d|-10------------------------------------------
    a|----------------------------------------------
    E|----------------------------------------------

    g|--10-13-12-10-13-10-12-10---------------
    d|-10-----------------------------11-13-10---
    a|----------------------------------------------
    E|----------------------------------------------

    g|------------------9-12-------9-10----------
    d|-10-9-8---8-11-------8-11-----------------
    a|----------------------------------------------
    E|----------------------------------------------

    ..... mehr kann ich auch net :D
    vileiecht kann mir jemand das ende geben ^^
    oder hat zufällig das lied :p
    oder hört es sich an und hört es raus ;)

    mfg Flippy
     
  2. cocolino

    cocolino Registrierter Benutzer

    Im Board seit:
    08.04.06
    Zuletzt hier:
    13.02.09
    Beiträge:
    245
    Ort:
    nähe regensburg
    Zustimmungen:
    0
    Kekse:
    77
  3. Sergeant Rabbit

    Sergeant Rabbit Threadersteller Registrierter Benutzer

    Im Board seit:
    07.07.06
    Zuletzt hier:
    5.11.13
    Beiträge:
    138
    Ort:
    Gladbeck
    Zustimmungen:
    1
    Kekse:
    32
    Erstellt: 16.10.06   #3
    ich danke dir cocolino ;)
     
Die Seite wird geladen...

mapping