Frage zu Farin Urlaub OK-Tab, zweite Gitarrenstimme

von krazione, 16.04.06.

  1. krazione

    krazione Registrierter Benutzer

    Im Board seit:
    11.04.06
    Zuletzt hier:
    26.09.09
    Beiträge:
    9
    Zustimmungen:
    0
    Kekse:
    10
    Erstellt: 16.04.06   #1
    Ich denke mal das meine Frage schon eimal auf dieser seite gestellt wurde, aber ich hatte keine lust mir alles durchzulesen........

    Also ich finde irgendwie keine verwertbaren tabs für das lied OK von farin urlaub.....
    Ich interressiere mich für den part den die 2 gitarre spielt ( kommt nach 40 sec.) .

    Bitte nur richtige Versionen posten, die falschen kann ich schon^^

    Schonmal danke für die Antworten!
     
  2. Stifflers_mom

    Stifflers_mom Registrierter Benutzer

    Im Board seit:
    19.08.03
    Zuletzt hier:
    30.10.16
    Beiträge:
    1.576
    Ort:
    Erlangen
    Zustimmungen:
    10
    Kekse:
    1.032
    Erstellt: 17.04.06   #2
    ich denke du meinst den hier:

    Code:
    e---------------------------------------------------------------------------
    h-5-5-7-7-8-8-7-7-5-5-7-7-8-8-7-7-----7-7-8-8-7-7-0-0-7-7-8-8-7-7-----------
    g---------------------------------7-7---------------------------------------
    d---------------------------------------------------------------------------
    A---------------------------------------------------------------------------
    E---------------------------------------------------------------------------
    kann man doch ganz leicht selber raushören.
     
  3. Audax_Parvus

    Audax_Parvus Registrierter Benutzer

    Im Board seit:
    11.09.06
    Zuletzt hier:
    27.07.16
    Beiträge:
    751
    Zustimmungen:
    1
    Kekse:
    409
    Erstellt: 15.09.06   #3
    is aber der falsche würdsch meinen

    P.M...................................................................................
    1:-0-0--2-2--3-3--2-2-|-0-0--2-2--3-3--2-2-|------2-2--3-3--2-2-|------2-2--3-3--2-2-|
    2:--------------------|--------------------|-3-3----------------|-0-0----------------|
    3:--------------------|--------------------|--------------------|--------------------|
    4:--------------------|--------------------|--------------------|--------------------|
    5:--------------------|--------------------|--------------------|--------------------|
    6:--------------------|--------------------|--------------------|--------------------|


    des is der richtige
     
  4. MOP

    MOP Registrierter Benutzer

    Im Board seit:
    23.09.05
    Zuletzt hier:
    23.01.09
    Beiträge:
    8
    Zustimmungen:
    0
    Kekse:
    10
    Erstellt: 15.09.06   #4
    das von dir ist aber irgendwie das gleiche....
     
  5. madeye

    madeye Registrierter Benutzer

    Im Board seit:
    10.04.06
    Zuletzt hier:
    27.11.16
    Beiträge:
    1.618
    Ort:
    Hagen (NRW)
    Zustimmungen:
    14
    Kekse:
    1.366
    Erstellt: 15.09.06   #5
    meine vermutung:
    ein anfänger, der noch nicht weiß, dass sich ein und derselbe ton auf zwei verschiedenen saiten befinden kann.
     
  6. Audax_Parvus

    Audax_Parvus Registrierter Benutzer

    Im Board seit:
    11.09.06
    Zuletzt hier:
    27.07.16
    Beiträge:
    751
    Zustimmungen:
    1
    Kekse:
    409
    Erstellt: 16.09.06   #6
    wolln we jez zickig werden??? für wie vermasselt häls du mich??? Es is mir schon klar das es quasi ein und das selbe is. Nur das is die Version wie Farin sie auch spielt
     
  7. madeye

    madeye Registrierter Benutzer

    Im Board seit:
    10.04.06
    Zuletzt hier:
    27.11.16
    Beiträge:
    1.618
    Ort:
    Hagen (NRW)
    Zustimmungen:
    14
    Kekse:
    1.366
    Erstellt: 16.09.06   #7
    gut, dann nehm ich meine vermutung zurück.

    wenns das gleiche ist, brauchst du es ja nicht nochmal zu posten.
    wie manns spielt, ist relativ wurscht. hauptsache es klingt richtig. und das kann man auf vielen wegen erreichen.
     
  8. Audax_Parvus

    Audax_Parvus Registrierter Benutzer

    Im Board seit:
    11.09.06
    Zuletzt hier:
    27.07.16
    Beiträge:
    751
    Zustimmungen:
    1
    Kekse:
    409
    Erstellt: 17.09.06   #8
    job okay ^^ sry wenns en bissel scheiße klang XD
     
  9. WursTy

    WursTy Registrierter Benutzer

    Im Board seit:
    17.09.06
    Zuletzt hier:
    28.11.14
    Beiträge:
    148
    Ort:
    Burbach
    Zustimmungen:
    0
    Kekse:
    10
    Erstellt: 18.09.06   #9
    aber das wird doch nicht P.M. gespielt, oder?
     
  10. Audax_Parvus

    Audax_Parvus Registrierter Benutzer

    Im Board seit:
    11.09.06
    Zuletzt hier:
    27.07.16
    Beiträge:
    751
    Zustimmungen:
    1
    Kekse:
    409
    Erstellt: 18.09.06   #10
    doch doch hab ich anfangs auch net gedacht aber verzerrt hörts sich geil an
     
Die Seite wird geladen...

mapping