Hilfe ! Ich weis nicht mehr was ich gespielt habe

von Icedealer, 30.10.04.

  1. Icedealer

    Icedealer Registrierter Benutzer

    Im Board seit:
    11.03.04
    Zuletzt hier:
    9.03.08
    Beiträge:
    636
    Zustimmungen:
    0
    Kekse:
    60
    Erstellt: 30.10.04   #1
    Hey ihr Gitarristen :)
    Ich bin zwar Bassist kann aber auch nen bissl Gitarre spielen und ich hab mal zusammen mit meinem Drummer nen paar Songs aufgenommen.

    Darunter ist eins was mir am meisten gefällt.

    Ich habe alle Instrumente außer halt die Drums eingespielt und beim Gitarrensolo ist alles improvisiert also habe ich jetzt nach 3 Monaten 0 Ahnung was ich das genau gespielt habe :o

    .. jetzt gerade versuche ich alles schön zu tabben aber ich komme an einer bestimmten Stelle nicht weiter (ich kanns ned raushören was ich da spiele).

    http://www.freakonline.de/files/song_waves.mp3

    das da oben ist der Song. kann mir einer bitte bitte sagen was ich nach der Stelle mit den gemuteten powerchords (so ab die 2:21) spiele ?

    vielen dank !

    grüße,
    Icedealer
     
  2. thommy

    thommy Registrierter Benutzer

    Im Board seit:
    25.03.04
    Zuletzt hier:
    24.11.11
    Beiträge:
    4.586
    Ort:
    its better to burn out than to fade away ?? ...
    Zustimmungen:
    10
    Kekse:
    1.456
    Erstellt: 30.10.04   #2
    ich kann dir das zwar leider net tabben,

    aber wenns mal wer gemacht hat könntest du mir die tabs zukommen lassen,
    find ich geil den song
     
  3. Crusher

    Crusher Mod Emeritus Ex-Moderator

    Im Board seit:
    18.08.03
    Zuletzt hier:
    6.03.16
    Beiträge:
    1.814
    Ort:
    Deutschland
    Zustimmungen:
    1
    Kekse:
    90
    Erstellt: 30.10.04   #3
    Hm mal sehen...wird wohl nicht ganz stimmen, aber vielleicht hilft's ja:

    Code:
    ---5---5---5---5---5---5---5---5----7---7---7---7---9-----7--
    -5---5---5---5---5---5---5---5----7---7---7---7---7---7-7----
    ---------------------------------------------------------------
    ---------------------------------------------------------------
    ---------------------------------------------------------------
    ---------------------------------------------------------------
    
    ---5---5---5---5---0---0---0--------7--7--7--7--9--10--12--14--
    -5---5---5---5---5---5---5-----5--------------------------------
    ------------------------------4-------------4-------------------
    -----------------------------------------------------------------
    -----------------------------------------------------------------
    -----------------------------------------------------------------
    
    ---15-0-14-0-12-0-14-0-15-0-14-0-12-0-14-0-15-0-17-0-15-0-14-
    ------------------------------------------------------------------
    ------------------------------------------------------------------
    ------------------------------------------------------------------
    ------------------------------------------------------------------
    ------------------------------------------------------------------
    
    ---0-17-0-19-0-21-0-19-0-17-0-19-0-17-0-15-0-14-0-12-0-10-0-
    -----------------------------------------------------------------
    -----------------------------------------------------------------
    -----------------------------------------------------------------
    -----------------------------------------------------------------
    -----------------------------------------------------------------
    
    ---12-0-10-0-12-0-14------------------------------------14-15--15-14-
    -----------------------14-12-0-14-15-14-12-14-12h14-14---------------
    ------------------------------------------------------------------------
    ------------------------------------------------------------------------
    ------------------------------------------------------------------------
    ------------------------------------------------------------------------
    
    ---12-15-12-14-12-17-15-14--14--12-14-12--14-12------------
    ---------------------------------------------------------------
    ---------------------------------------------------------------
    ---------------------------------------------------------------
    ---------------------------------------------------------------
    ---------------------------------------------------------------
    
    ---------------------------------------------------------------
    ---14-14b15--12/16--14-12-12/16--14-12----------------------
    ---------------------------------------------------------------
    ---------------------------------------------------------------
    ---------------------------------------------------------------
    ---------------------------------------------------------------
    
    
    Legende:
    / = slide
    b= bend
    h = hammer-on

    *tab editiert*
     
  4. Comrade

    Comrade Registrierter Benutzer

    Im Board seit:
    19.02.04
    Zuletzt hier:
    4.01.14
    Beiträge:
    1.894
    Ort:
    Ingolstadt
    Zustimmungen:
    2
    Kekse:
    276
    Erstellt: 30.10.04   #4
    Also:
    e----------------------------|
    h--10-10-10-10-10-10-10-10-|
    g-9--9--9--9---9--9--9--9---|
    D----------------------------|
    A----------------------------|
    E----------------------------|


    e-------------------------------|
    h--12-12-12-12-12-12-12-14-12|
    g-9--9--9--9--9--9--9---9------|
    D-------------------------------|
    A-------------------------------|
    E-------------------------------|


    e----------------------------------------------------------|
    h--10-10-10-10-----------------/12--12-12-12-14-15-17-19|
    g-9--9--9--9---9-9-9-9-9-9-7h9---------------------------|
    D----------------------------------------------------------|
    A----------------------------------------------------------|
    E----------------------------------------------------------|

    e-15-14-12-14-15-14-12-14-15-17-15-14-17-19-21-19
    h----------------------------------------------------
    g----------------------------------------------------
    D----------------------------------------------------
    A----------------------------------------------------
    E----------------------------------------------------

    e-17-19-17-15-17-15-14-12-10-12-14-12-
    h-----------------------------------------
    g-----------------------------------------
    D-----------------------------------------
    A-------------------------------------------
    E------------------------------------------


    e---------------------12-14-15-15-14-12-15-12-14-12-17
    h-12-14-15-14h15p12------------------------------------
    g--------------------------------------------------------
    D--------------------------------------------------------
    A--------------------------------------------------------
    E--------------------------------------------------------

    e-12-14-12-12-12-14-12------------------------------------------------
    h----------------------- 12-14-12-14b15rb14p12-14-14-12-14b15rb14-12
    g-----------------------------------------------------------------------
    D-----------------------------------------------------------------------
    A-----------------------------------------------------------------------
    E-----------------------------------------------------------------------



    So,ungefähr dürfts hinkommen ...nur der Schluss stimmt wohl nicht ganz..
    Aber vielleicht hilfts dir ja wenigstens selber drauf zukommen...


    EDIT:Ach mist,da hockt man sich ne 3/4 Stunde hin und dann is jemand schneller...

    EDIT2:naja,ganz identisch sind unsere versionen auch nicht.
     
  5. Crusher

    Crusher Mod Emeritus Ex-Moderator

    Im Board seit:
    18.08.03
    Zuletzt hier:
    6.03.16
    Beiträge:
    1.814
    Ort:
    Deutschland
    Zustimmungen:
    1
    Kekse:
    90
    Erstellt: 30.10.04   #5
    Zeigt doch nur, wie hilfsbereit das Board hier ist ;). Und zwei Versionen zur Auswahl dürften besser sein als eine, könnten sich ja gegenseitig ergänzen.
     
  6. Comrade

    Comrade Registrierter Benutzer

    Im Board seit:
    19.02.04
    Zuletzt hier:
    4.01.14
    Beiträge:
    1.894
    Ort:
    Ingolstadt
    Zustimmungen:
    2
    Kekse:
    276
    Erstellt: 30.10.04   #6
    :great:
    eben...
    ausserdem denk ich profitieren wir selber auch.Was raushören bringt immer was für's Gehör.
     
  7. Icedealer

    Icedealer Threadersteller Registrierter Benutzer

    Im Board seit:
    11.03.04
    Zuletzt hier:
    9.03.08
    Beiträge:
    636
    Zustimmungen:
    0
    Kekse:
    60
    Erstellt: 30.10.04   #7
    hier is mein beitrag: (alles vor 2:21)

     
  8. Icedealer

    Icedealer Threadersteller Registrierter Benutzer

    Im Board seit:
    11.03.04
    Zuletzt hier:
    9.03.08
    Beiträge:
    636
    Zustimmungen:
    0
    Kekse:
    60
    Erstellt: 30.10.04   #8
    aber echt ! finde ich voll nett das ihr mir hier helft !

    DANKE ! :D
     
Die Seite wird geladen...

mapping