Joint Venture - TABs / Könnt ihr das raushören ?

von piny, 22.06.07.

  1. piny

    piny Registrierter Benutzer

    Im Board seit:
    26.10.06
    Zuletzt hier:
    5.03.09
    Beiträge:
    6
    Ort:
    Berlin
    Zustimmungen:
    0
    Kekse:
    10
    Erstellt: 22.06.07   #1
    Hi!
    Hoffe, ich bin hier im richtigen Forum.
    Es geht um 2 Lieder:
    1. Hab zwar hier (http://www.joint-venture.de/musik/ichbrauchpersonal/git01.htm) wunderbar die Akkorde dazu, aber das, was er da am Anfang klimpert, kann ich beim besten Willen nicht raushören. Hier hab ich den Anfang des Liedes hochgeladen : http://pelzvogel-nest.de.tk/audio.mp3
    Bisher bin ich soweit gekommen (was auch nicht schwer ist):
    ----------------------------------
    ----------------------------------
    ----------------------------------
    --2-2-0-0------------------------
    -----------3-3-2-2-0-0---------
    -----------------------------------
    Aber wie geht es weiter ? Hat wer die TABs dafür oder kann es aus den hochgeladenen 15 Sekunden raushören?
    Wäre sehr cool! :)

    Und dann die Zweite Frage:
    Hat wer zum Lied "Chronik meines Alkoholismus" (hier kann man es sich anhören : http://profile.myspace.com/index.cfm?fuseaction=user.viewprofile&friendID=87712176)
    die TAB's ?

    Vielen Dank schonmal und ich hoffe, ich hab mich verständlich ausgedrückt :)


    edit//
    In einem anderen Forum wurde mir zur ersten Frage jetzt schon geholfen:
    ------------------------------
    ------------------------------
    ------------------------------
    --2-3-5-5/7/5-3-2-2-2/3-2-0---
    --0-0-0---------------------3-
    ------------------------------

    ------------------------------
    ------------------------------
    ------------------------------
    ------0-2-2/3-0-2-2/3-2-0-----
    --2-3---------------------3-2-
    ------------------------------

    Die zweite ist auch nicht soooo wichtig, von mir aus kann der Thread auch in den tiefen des Forums versinken :)
     
  2. Gore-Illa

    Gore-Illa Registrierter Benutzer

    Im Board seit:
    14.11.06
    Zuletzt hier:
    22.03.08
    Beiträge:
    147
    Zustimmungen:
    0
    Kekse:
    25
    Erstellt: 24.06.07   #2
    Hab zu deiner ersten Frage schon mal zum Teil was aufgetabbt. Irgendwie bin ich aber zu blöd die Akkorde am Anfang rauszuhörn, vielleicht kann das ja jemand noch vervollständigen.
    Sind evtl. Sogar die selben wie später in der Strophe.
     

    Anhänge:

  3. WUPMusicMan

    WUPMusicMan Registrierter Benutzer

    Im Board seit:
    14.03.06
    Zuletzt hier:
    7.10.12
    Beiträge:
    443
    Zustimmungen:
    0
    Kekse:
    221
    Erstellt: 02.07.07   #3
    Mal eben kurz reingehört.

    Chronik des Alkoholismus:

    Intro F G

    Am Am F Am Am Am F Am

    F Am F G

    Am Am F Am F G Am F G Am

    F G Am F G

    Und mein ich wieder von vorne.

    Gruss
    Marc
     
Die Seite wird geladen...

mapping