Leersaiten bei Schlaghand

von noRm, 20.11.05.

  1. noRm

    noRm Registrierter Benutzer

    Im Board seit:
    20.11.05
    Zuletzt hier:
    30.06.12
    Beiträge:
    4
    Ort:
    Neuhofer Slums
    Zustimmungen:
    0
    Kekse:
    10
    Erstellt: 20.11.05   #1
    Hi Leute ich bin der Neue. Ich bin noch nicht allzu erfahren (spiele seit ca. einem Jahr) und mich würde mal interessieren, wie man Folgendes spielt:

    Code:
      Bm             F#m               G              A               
    --------------------------------|--------------------------------|
    --15--15--x--15/-10--10--x--10/-|--12--12--x--12/-14--14--x--14/-|
    --------------------------------|--------------------------------|
    --------------------------------|--------------------------------|
    --14--14--x--14/-9---9---x--9---|--10--10--x--10/-12--12--x--12/-|
    --------------------------------|--------------------------------|
    
    
      G              A                 F#m            Bm             
    --------------------------------|-------------------------------|
    --12--12--x--12/-14--14--x--14/-|--10--10--x--10/-15--15--x--x--|
    --------------------------------|-------------------------------|
    --------------------------------|-------------------------------|
    --10--10--x--10/-12--12--x--12/-|--9---9---x--9/--14--14--x--x--|
    --------------------------------|-------------------------------|
    
    Also ohne Plektrum könnt ichs mir vorstellen, aber mit Plektrum?
     
  2. nookie

    nookie Registrierter Benutzer

    Im Board seit:
    25.07.05
    Zuletzt hier:
    1.01.16
    Beiträge:
    541
    Ort:
    Saarland
    Zustimmungen:
    4
    Kekse:
    368
    Erstellt: 20.11.05   #2
    einfach die saiten dazwischen abdämpfen mit der greifhand
     
  3. Tobak

    Tobak Registrierter Benutzer

    Im Board seit:
    07.01.05
    Zuletzt hier:
    3.04.08
    Beiträge:
    15
    Zustimmungen:
    0
    Kekse:
    10
    Erstellt: 20.11.05   #3
    Das ist Reptilia von den Strokes, oder?
    Einfach den Zeigefinger, mit dem du die A-Saite greifst so flach auflegen, dass du die G und D Saite mit abdämpfst.
    Musst du ne Zeit lang üben, aber das dürftest du schon packen!
     
  4. jons

    jons Registrierter Benutzer

    Im Board seit:
    09.03.05
    Zuletzt hier:
    24.01.10
    Beiträge:
    92
    Ort:
    Papenburg
    Zustimmungen:
    0
    Kekse:
    66
    Erstellt: 20.11.05   #4
    sofern das reptilia sein sollte (was ich mal stark annehme) spiel ich das indem ich den zeigefinger quer über das griffbrett lege und so die saiten abdämpfe (wie bei nem barree aber die saiten halt nicht runterdrücken). mit dem mittelfinger greif ich dann die a-saite und mit dem kleinen finger die h-saite.
     
  5. noRm

    noRm Threadersteller Registrierter Benutzer

    Im Board seit:
    20.11.05
    Zuletzt hier:
    30.06.12
    Beiträge:
    4
    Ort:
    Neuhofer Slums
    Zustimmungen:
    0
    Kekse:
    10
    Erstellt: 20.11.05   #5
    jo, das ist reptilia von den strokes. vielen dank. dann werd ich mal üben...
     
Die Seite wird geladen...

mapping