Otherside...welche Seite mit welchem Finger?

von Para-Dox, 11.05.05.

  1. Para-Dox

    Para-Dox Registrierter Benutzer

    Im Board seit:
    12.04.05
    Zuletzt hier:
    19.10.09
    Beiträge:
    268
    Zustimmungen:
    0
    Kekse:
    93
    Erstellt: 11.05.05   #1
    Vorneweg

    Meine Gitte ist noch nicht hier, habe noch gar nix. Aber wir haben zuhause noch ne alte A-Gitarre rumstehen, welche ich halt gestimmt habe und ein wenig darauf übe (mein Fingerkuppen ziehen schon schön, scheiss Stahlseitien hihi).
    Nun habe ich einfach mal so den Anfang von "Come as you are", "Nothing Else Matters" und eben "Otherside" gelernt.

    Nun bei Otherside nimmt mich nun mal wunder, wie man die Saiten richtig greift. Hier der ganz ganz kleine Anfang:

    ----------------------------------------------------------------
    ----------------------------------------------------------------
    ------------4-------------------------4-------------------------
    --------7-7---7-5----------------7-7---7-5---------------------
    --7-7-7-----------7-5-5-5-7-7-7------------7------------------
    ----------------------------------------------------------------

    Nun wie greift man das richtig? Habs einfach mal irgendwie gespielt. Hier mal den Tabs nach, schön eine Note nach der anderen:

    Ringfinger, Ringfinger, Ringfinger, dann mit Ringfinger rauf und weiter Ringfinger, Ringfinger, dann rauf und mit Zeigefinger das 4, dann runter die 7 mit Ringfinger, die 5 mit Zeigefinger usw.

    Aber das ist 100% ig falsch. Wie gesagt, habe noch nicht richtig begonnen. Wird in irgendeinem Buch (habe vor mir das von Peter Bursch zu holen), erklärt, nach welchen "Normen" man gehen kann, wenn man keine Akkorde spielt?

    Wäre um jede Info dankbar.

    Gruss
     
  2. 123

    123 Registrierter Benutzer

    Im Board seit:
    12.04.04
    Zuletzt hier:
    21.09.13
    Beiträge:
    415
    Zustimmungen:
    1
    Kekse:
    115
    Erstellt: 11.05.05   #2
    Warum ist das falsch? Ich würde das auch so spielen.
    Es sei denn die tabs sind falsch.
    Für die 4 auf der G-Saite kannst du auch eine 0 auf der b-Saite spielen. Dann musst du gar nicht greifen.
     
  3. patrice

    patrice Registrierter Benutzer

    Im Board seit:
    26.12.04
    Zuletzt hier:
    25.09.07
    Beiträge:
    865
    Ort:
    Melchnau (CH)
    Zustimmungen:
    1
    Kekse:
    350
    Erstellt: 12.05.05   #3
    Hallo,

    ich spiele Otherside so:

    ----------------------------------------------------------------
    ----------------------------------------------------------------
    ----------------------------------------------------------------
    ------------7--7-9-7-------------------------------------------
    --7--7--7-------------10--7----5--5--5--7--7--7..................... usw..
    ----------------------------------------------------------------

    ..Z..Z...Z....Z...Z.R.Z...KL...Z.....Z..Z..Z...Z...Z...Z

    Den Übergang von A- auf D- Saite greifst du einfach ein kleiner Barré mit dem Zeigefinger.

    Z = Zeigefinger
    R = Ringfinger
    KL = Kleiner Finger

    Diese Version ist eine von vielen Varianten wie man Otherside spielen kann, vom Tab her, und von der Fingerstellung her.

    M.F.G.
    Patrice
     
Die Seite wird geladen...

mapping