Staind - Nothing Else Matters Live Pickingtechnik ?

von Syntex, 03.09.06.

  1. Syntex

    Syntex Registrierter Benutzer

    Im Board seit:
    03.09.06
    Zuletzt hier:
    21.03.07
    Beiträge:
    16
    Zustimmungen:
    0
    Kekse:
    10
    Erstellt: 03.09.06   #1
    Hallo ihr Musiker, hätte mal eine Frage zur Staind Live Version von "Nothing Else Matters" ( denke jeder hat sie schonmal gehört). Die Akkordfolge der Live Version ist denkbar einfach, werde sie am Ende des Beitrags noch posten. Was mich jedoch interessiert ist die Picking Technick die beim Spielen verwendet wird, weil durchgetrichen werden die Akkorde ja anscheinend irgendwie nicht.
    Würde mich freuen wenn mir jemand bei meiner Frage helfen bzw. mir erklären kann wie da gepickt wird.
    Hier das Lied :


    Em D C
    So close, no matter how far
    Em D C
    Couldn't be much more from the heart
    Em D C
    Forever trusting who we are
    G D Em
    'Cause nothing else matters


    Em D C
    I never opened myself this way
    Em D C
    Life is ours, we do it our way
    Em D CAll these words that I just don't sayG D Em C-G-(D)
    'Cause nothing else matters


    D C D
    Never cared for what they do, no
    D C D
    Never cared for what they know, no
    D C D
    Never cared for what they do, no
    Em
    But I know


    Em D C
    Trust I seek but I find in you
    Em D C
    Every day for us, something new
    Em D C
    Open mind for a different view
    G D Em (Em-C-G-D)x4
    'Cause nothing else matters


    Em D C
    So close, no matter how far
    Em D C
    Couldn't be much more from the heart
    Em D C
    Forever trusting who we are
    G D Em
    'Cause nothing else matters
    G D Em
    'Cause nothing else matters.
     
  2. msoada

    msoada Mod Emeritus Ex-Moderator

    Im Board seit:
    08.05.05
    Zuletzt hier:
    21.09.15
    Beiträge:
    4.498
    Ort:
    Belgrad
    Zustimmungen:
    62
    Kekse:
    5.984
    Erstellt: 03.09.06   #2
    Is das nicht wie im original?:confused:
     
  3. kirkhammett150

    kirkhammett150 Registrierter Benutzer

    Im Board seit:
    25.09.05
    Zuletzt hier:
    1.03.12
    Beiträge:
    187
    Ort:
    Bremen
    Zustimmungen:
    0
    Kekse:
    63
    Erstellt: 03.09.06   #3
    Okay, das was du da gepostet hast, ist überwiegend sehr falsch (Nenn wir das Kind beim Namen)! Es gibt TONNEN von Tabs zu dem Lied...einfach mal schauen, dann kriegste das hin!

    Und Stained hat das wirklich SEHR vereinfacht gespielt! Allein das der gute Mike nur mit dem Daumen "gepickt" hat....ich meine, dass der zweite Gitarrero immer während den Strophen Em - D - C gespielt hat, also das, was eigentlich nur im Intro gespielt wird (die Barré Griffe) und jeder kann....:D

    Lern am besten JAYMZ version!!
    Is besser!
     
  4. unfassbaaar

    unfassbaaar Registrierter Benutzer

    Im Board seit:
    08.12.05
    Zuletzt hier:
    23.07.15
    Beiträge:
    339
    Zustimmungen:
    0
    Kekse:
    1.460
    Erstellt: 03.09.06   #4
    e|-------3----0---|-2----3---0--------|-------3----0---|-2------------------|
    B|-----0-------0--|-------3----3------|-----0-------0--|-----3----3----3----|
    G|---0------0---0-|--------0-----0----|---0------0---0-|------2p0----0------|
    D|----------------|-0--0--------------|----------------|-0--0---------------|
    A|----------------|----------3--------|----------------|----------3---------|
    E|-0--------------|---------------3-2-|-0--------------|----------------3-2-|
    Em D Dsus4 Cadd2 Em D Cadd2

    e|-------3----0---|-2----3---3-----|-----3--2----2----|-0-----0-------|-------0---------|
    B|-----0-------0--|-------3----3---|-----3--0------0--|-----0---0-----|-----0---0-------|
    G|---0------0---0-|--------0-----0-|---0----2---------|---0-------0---|---0-------0-----|
    D|----------------|-0--0-----3-----|------------------|---------------|-----------------|
    A|----------------|----------------|--------2--2------|---------------|-----------------|
    E|-0--------------|----------------|-3----------------|-0-------------|-0-----------3-2-|
    Em D G B7 Em Em



    ich hätte auch gesagt, es ist so wie im original..
     
Die Seite wird geladen...

mapping