Stairway amoll verkürzt spielen?

von Circle Zap, 10.09.07.

  1. Circle Zap

    Circle Zap Registrierter Benutzer

    Im Board seit:
    05.10.05
    Zuletzt hier:
    2.06.14
    Beiträge:
    622
    Ort:
    Kassel
    Zustimmungen:
    0
    Kekse:
    51
    Erstellt: 10.09.07   #1
    Der Anfang von Stairway to Heaven beginnt, wenn ich mich nicht irre mit nem amoll Griff
    ------------5-----
    ----------5-------
    -------5----------
    ----7-------------
    ------------------
    ------------------

    bislang habe ich auf der E-Gitarre immer voll den Amoll gegriffen
    ----5-------------
    ----5-------------
    ----5-------------
    ----7-------------
    ----7-------------
    ----5-------------

    und dann von der D Saite auf die E Saite runtergespielt!

    Nun habe ich eine A- Gitarre und dies lässt sich so nicht sauber spielen! Ein Experte den ich gut kenne meinte er würde immer verkürzt spielen also gleich nur die untersten 4 Saiten greifen!

    Ist dies üblich? Wie spielt ihr den Anfang?
     
  2. p0wl

    p0wl Registrierter Benutzer

    Im Board seit:
    20.10.06
    Beiträge:
    508
    Ort:
    Stuttgart/Tübingen
    Zustimmungen:
    0
    Kekse:
    346
    Erstellt: 10.09.07   #2
    Also kann das Lied nicht spielen und kenne auch die Noten nicht, aber wenn du nicht gen ganzen A-Moll-Akkord brauchst (also auch nicht danach oder so), dann greif doch nur das was du brauchst, also wie ganz oben gezeigt.
     
  3. hilmi01

    hilmi01 Registrierter Benutzer

    Im Board seit:
    27.12.06
    Zuletzt hier:
    2.12.16
    Beiträge:
    2.979
    Ort:
    München
    Zustimmungen:
    113
    Kekse:
    11.125
    Erstellt: 10.09.07   #3

    e |--------------5---7----------7---8----------8--
    H |----------5-----------5--------------5---------
    G |------5-------------------5--------------5-----
    D |--7---------------6--------------5-------------
    A |-----------------------------------------------
    E |-----------------------------------------------


    Der erste Finger liegt dabei die ganze Zeit als Barrée im 5. Bund über alle 4 Saiten.

    Fingertechnisch sieht das dann also so aus:

    1 = Zeigefinger
    2 = Mittelfinger
    3 = Ringfinger


    e |--------------1---3----------3---3----------3--
    H |----------1-----------1--------------1---------
    G |------1-------------------1--------------1-----
    D |--3---------------2--------------1-------------
    A |-----------------------------------------------
    E |-----------------------------------------------
     
  4. Circle Zap

    Circle Zap Threadersteller Registrierter Benutzer

    Im Board seit:
    05.10.05
    Zuletzt hier:
    2.06.14
    Beiträge:
    622
    Ort:
    Kassel
    Zustimmungen:
    0
    Kekse:
    51
    Erstellt: 10.09.07   #4
    Ich wollte halt wissen ob es jemand gibt der das auch so spielt, oder ob alle verkürzt spielen? Auf der E- Gitarre hört sichs ja genauso an, nur auf der A-Gitarre kann ich das nicht sauber spielen! Gibt halt das Problem, das man mit dem ganzen a Moll besser improvisieren kann, und wenn man laune hat und mit jemanden zusammen spielt auch mal den Powerchord a mit reinnehmen kann, nur dann müsste ich ja bei dem verkürzten umgreifen!

    Wie greift den Mr. Page das? Gibt doch bestimmt den ein oder anderen Zeppelinfan unter euch der das weiß!?
     
  5. hilmi01

    hilmi01 Registrierter Benutzer

    Im Board seit:
    27.12.06
    Zuletzt hier:
    2.12.16
    Beiträge:
    2.979
    Ort:
    München
    Zustimmungen:
    113
    Kekse:
    11.125
    Erstellt: 10.09.07   #5
    Hast Du meinen Beitrag über Deinem gesehen?
     
  6. Circle Zap

    Circle Zap Threadersteller Registrierter Benutzer

    Im Board seit:
    05.10.05
    Zuletzt hier:
    2.06.14
    Beiträge:
    622
    Ort:
    Kassel
    Zustimmungen:
    0
    Kekse:
    51
    Erstellt: 10.09.07   #6
    Erst nachdem ich meinen zweiten schon geschrieben hab! Sorry
    Gut dann gewöhn ich mich jetzt um und spiel verkürzt, so das ich es auch auf der A- Gitarre gescheit spielen kann!
     
Die Seite wird geladen...

mapping