Tabs zu Emanuela von Fettes Brot gesucht

von HER|Andy, 04.07.08.

  1. HER|Andy

    HER|Andy Registrierter Benutzer

    Im Board seit:
    27.06.08
    Zuletzt hier:
    4.05.09
    Beiträge:
    3
    Zustimmungen:
    0
    Kekse:
    10
    Erstellt: 04.07.08   #1
    Moin!

    Wie der Titel schon sagt, suche ich die Gitarrentabs zu dem Lied.
    Auf den einschlägigen Tab Seiten hab ich nix gefunden. Die Gitarre ist in dem Lied ja auch nicht soo besonders hervorstechend, aber zumindest der Anfang intressiert.

    Hab da mal n YT Vid verlinkt:
    http://www.youtube.com/watch?v=INWhuAPPlqc

    Der kurze Teil, den der Gitarrist spielt, als der Sänger sagt, er habe Backstage einen Klingelton verschluckt, intressiert mich.

    Ich meine folgendes rausgehört zu haben:

    Code:
    e---------------------|-------------------
    B---------------------|-------------------
    G---------7-7-7-5-7---|-------------------
    D-------------------5-|-5-5-5-3-5---------
    A---------------------|-------------3-----
    E---------------------|-------------------
    Bin aber nicht sicher. :o
    Was meinen die Leute mit etwas geschulterem Gehör?

    P.S.:
    And die Mods: Könnte dieses Thema dann bitte gelöscht werden? Ich habs da versucht, weil ich dachte, das wäre das richtige Forum, aber ich dachte ich versuchs lieber hier nochmal.
     
  2. Niiinkh

    Niiinkh Registrierter Benutzer

    Im Board seit:
    26.09.06
    Zuletzt hier:
    7.12.16
    Beiträge:
    35
    Zustimmungen:
    0
    Kekse:
    16
    Erstellt: 05.07.08   #2
    also ich hab jetzt das hier rausgehört:
    Code:
    e---------------------|-------------------
    B------6-6-6-6-4-6----|-------------------
    G-------------------5-|-5-5-5-5-3-5-------
    D---------------------|-------------3-----
    A---------------------|-------------------
    E---------------------|-------------------
    
    bin mir da aber auch keinesfalls sicher und es ist auch vom prinzip her deinem sehr sehr ähnlich halt nur höher:D
     
  3. leze

    leze Registrierter Benutzer

    Im Board seit:
    07.06.08
    Zuletzt hier:
    18.08.13
    Beiträge:
    25
    Zustimmungen:
    0
    Kekse:
    10
Die Seite wird geladen...

mapping