The Bitch Solo

von nova, 25.04.07.

  1. nova

    nova Registrierter Benutzer

    Im Board seit:
    20.05.06
    Zuletzt hier:
    1.10.15
    Beiträge:
    230
    Ort:
    Duisburg
    Zustimmungen:
    5
    Kekse:
    159
    Erstellt: 25.04.07   #1
    ich bin auf der suche nach meredith brooks - the bitch solo...ich suche ne version die dem original zwar ähneln soll, ich aber auch gleichzeitig genügend raum für effekte/tremolo/improvisation habe. ich versuch schon seit 2 wochen das original solo umzuschreiben, leider bin ich viel zu doof dafür. wenn jemand mir helfen könnte wäre ich ihm/ihr sehr dankbar ;)
     
  2. nova

    nova Threadersteller Registrierter Benutzer

    Im Board seit:
    20.05.06
    Zuletzt hier:
    1.10.15
    Beiträge:
    230
    Ort:
    Duisburg
    Zustimmungen:
    5
    Kekse:
    159
    Erstellt: 28.04.07   #2
    kann mir denn keiner helfen?
     
  3. KeinGerede

    KeinGerede Registrierter Benutzer

    Im Board seit:
    23.06.05
    Zuletzt hier:
    1.12.16
    Beiträge:
    1.365
    Zustimmungen:
    47
    Kekse:
    5.415
    Erstellt: 29.04.07   #3
    tag
    ich versuch mal das solo zu tabben was ich damals in der schulband so gezeig bekommen hab
    eigentlich bietet das original schon ne menge ansätze für tremolo, impro etc.
    das is halt dann deine aufgabe bei der improvisation ^^
    (ich denk du kannst den anschlag und so raushören das tabb ich jetz aus faulheit nich ^^)
    Code:
    --> /=slide aufwärts \=slide abwärts ^=bend p=pull of
    -----------------------------------------------------------
    --10--12--10--10--10--10--7--10--12--10--10--10---------
    ---9---9---9--11---9--11--10--9---9---9---11--9----------
    -----------------------------------------------------------
    -----------------------------------------------------------
    -----------------------------------------------------------
    _____________________________________________________
    
    -----------------------------------------------------------
    -----10----10-12^13^12p10----10-------------------------
    -/11----11-------------------11-----/11-9-----------------
    --------------------------------------------11p9\7----7---
    ----------------------------------------------------9------
    -----------------------------------------------------------
    
     
  4. nova

    nova Threadersteller Registrierter Benutzer

    Im Board seit:
    20.05.06
    Zuletzt hier:
    1.10.15
    Beiträge:
    230
    Ort:
    Duisburg
    Zustimmungen:
    5
    Kekse:
    159
    Erstellt: 29.04.07   #4
    das original solo kann ich bereits, ich hab halt probleme bei der erweiterung/improvisation des solo. gibts irgendeine skale die ich benutzen kann? am besten wär eine die gut zu dealy, phaser, chorus, whammy, wah, etc. passt.
     
Die Seite wird geladen...

mapping