Totall Newb braucht hilfe mit TABs

von thei, 15.04.06.

  1. thei

    thei Registrierter Benutzer

    Im Board seit:
    15.04.06
    Zuletzt hier:
    9.11.06
    Beiträge:
    8
    Zustimmungen:
    0
    Kekse:
    10
    Erstellt: 15.04.06   #1
    Hi,

    Hab erst meine E-Gitarre seit einer Woche (und schon 2 "e" Saiten verbraten!:D), allerdings blick ich bei den TABs nicht ganz durch, ich hab mir ein TAB für "Feuer und Wasser" von Rammstein besorgt.



    Deswegen frag ich mich, was "Tuning C-G-C-F-A-D" bedeutet? (Etwa die Griffe?) und dann weiß ich auch nicht was das für Zahlen in den TAB ("0", "3","5" usw.) sind?!:confused:

    PS: Hab ein Büchlein von Peter Bursch "Rock Gitarre von Null an spielend lernen, ganz ohne Noten!" also ganz ohne hilfe bin ich net!:great:

    PPS: Bitte net auf Suche verweißen, hab ich schon benutzt und auch den FAQ & Workshop gelesen!:)
     
  2. hullabalooza

    hullabalooza Registrierter Benutzer

    Im Board seit:
    03.11.05
    Zuletzt hier:
    23.09.16
    Beiträge:
    506
    Ort:
    Crewe
    Zustimmungen:
    3
    Kekse:
    820
    Erstellt: 15.04.06   #2
    Das C-G-C-F-A-D gibt an, wie die Gitarre gestimmt sein muss, um eben die Tabulatur vernünftig spielen zu können. Standarmäßig würde also E-A-D-G-H-E da stehen.
    Die Zahlen, die jetzt im Tab stehen, geben an, welche Saite an welchem Bund gegriffen und gespielt werden muss. Soll heißen: in deinem Beispiel werden immer (in diesem Fall) die G- und die C-Saite am nullten Bund, soll heißen: Leersaite, gespielt.
    Dort wo keine Zahlen stehen, wird auch nichts gespielt. D.h. du darfst die Saiten entweder gar nicht spielen oder musst sie dämpfen. Auf jeden Fall sollte man in deinem Bsp. nur C- und G-Saite "leer" hören.
     
  3. BlueChaoz

    BlueChaoz Registrierter Benutzer

    Im Board seit:
    14.03.06
    Zuletzt hier:
    22.03.12
    Beiträge:
    840
    Zustimmungen:
    1
    Kekse:
    608
    Erstellt: 15.04.06   #3
    Die Zahlen in den Tabs zeigen die Bünde in denen du die jeweilige Saite "drücken" musst. In dem Beispiel von dir oben spielst du die Saite eben leer an, wenn dann da 3, 5, 7 etc stehen musst du die Zeiten entsprechend im 3ten , 5ten , 7ten Bund drücken! Ganz easy ;)

    Zum Tuning: Soweit ich sehe ist das die "Stimmung" der Saiten. In dem Fall ein "Drop C" (??). Wenn du ein Stimmgerät hast kannst du die Saiten entsprechend den Bezeichnungen stimmen. (Korrigiert mich wenn ich Noob falsch liege :D) Allerdings kann ich mir nicht vorstellen dass das "dünne" Saiten mitmachen.. Könnte sein dass du "dickere" Saiten brauchst...

    Grüße

    EDIT: Hups Hulla war schneller :D
     
  4. thei

    thei Threadersteller Registrierter Benutzer

    Im Board seit:
    15.04.06
    Zuletzt hier:
    9.11.06
    Beiträge:
    8
    Zustimmungen:
    0
    Kekse:
    10
    Erstellt: 15.04.06   #4
    aha.... ok, ich glaub ich kapier´s jetzt langsam!:great:

    Aber ne Frage hab ich jetzt noch zum Tuning, ich mein wie Stimm ich jetzt die Saiten von "E", "A", "D", "G", "H", "e" auf "C", "G", "C", "F", "A", "D" um? Hab meine Gitarre ja per Messgerät (Yamaha YT-120) eingestimmt!

    Da steht in der oberen Zeile: "Guitar 6E(1E), 5A, 4D, 3G, 2B" (so hab ich meine Gitarre gestimmt)
    und in der unteren Zeile steht: "Bass 4E, 3A, 2D, 1G"
     
  5. m~Daniel

    m~Daniel Registrierter Benutzer

    Im Board seit:
    05.05.04
    Zuletzt hier:
    6.12.16
    Beiträge:
    4.414
    Ort:
    Frankfurt/Main
    Zustimmungen:
    587
    Kekse:
    17.845
    Erstellt: 15.04.06   #5
    Du bräcuhtest ein chromatisches Stimmgerät - mit deinem gehts leider nicht
    Aber du kannst z.b. auf Drop D stimmen (nur die tiefe E-Saite runter) - dann stimmen die Intervalle nur is das ganze 2 Halbtöne höher.
    AUf Drop D stimmste ganz einfach - d saite anschlagen und dann die E-Saite auf das D eine Oktave tiefer stimmen
     
  6. silent

    silent Registrierter Benutzer

    Im Board seit:
    13.01.05
    Zuletzt hier:
    17.08.13
    Beiträge:
    680
    Zustimmungen:
    6
    Kekse:
    922
    Erstellt: 15.04.06   #6
    Wilkommen im Board thei :great:

    Als Anfänger mit einwöchiger Spielpraxis würde ich dir erst mal vom droped und open Tunings abraten. Wenn dir die Saiten weiter reissen und Gitarre für dein Gehör ins Nirvana verstimmt wirst du irgendwann wohl die Freude verlieren. Gewöhn dich lieber erst einmal an das Standartdtuning E-A-d-g-h-e.

    Hier ein Lösungsvorschlag um das Riff mit der Standard-Stimmung zu spielen.

    Das Original wie du es eingestellt hast:

    d|---------------------------------------------------------------
    a|---------------------------------------------------------------
    f|---------------------------------------------------------------
    C|0---0---0---0---0---0---0---0---0---0---0---0---0---0---0---0--
    G|--0---0---0---0---0---0---0---0---0---0---0---0---0---0---0---0
    C|---------------------------------------------------------------


    Hier also die alternativen TABs in Standardstimmung (E-A-d-g-h-e') zu deinen Angaben:

    e|---------------------------------------------------------------
    h|---------------------------------------------------------------
    g|---------------------------------------------------------------
    d|---------------------------------------------------------------
    A|3---3---3---3---3---3---3---3---3---3---3---3---3---3---3---3--
    E|--3---3---3---3---3---3---3---3---3---3---3---3---3---3---3---3

    Beides ist das selbe mit unterschiedlicher Stimmung, die C-Variante klingt bei entsprechend eingestelltem Equipment sicher etwas "fetter".
    lg silent
     
  7. silent

    silent Registrierter Benutzer

    Im Board seit:
    13.01.05
    Zuletzt hier:
    17.08.13
    Beiträge:
    680
    Zustimmungen:
    6
    Kekse:
    922
    Erstellt: 16.04.06   #7
    Tja, da habe ich mich doch noch dazu hinreissen lassen :p .

    Das mit dem Umschreiben ist für einen Anfänger noch etwas kompliziert, aber im Vorliegenden Tab kann ich dir mal erklären wie es sich mit diesem speziellen Fall verhält.

    Zunächst gibt es 12 Töne auf der Gitarre die sich immer wiederholen.
    (deutsche Schreibweise)
    A-A#-H-C-C#-D-D#-E-F-F#-G--G#
    1-2--3-4-5--6-7--8-9-10-11-12
    (internationale Schreibweise)
    A-A#-B-C-C#-D-D#-E-F-F#-G--G# der Vorteil hierbei ist die verwendung des Alphabetes.
    1-2--3-4-5--6-7--8-9-10-11-12


    Standart-Stimmung (E-A-D-G-H-E) Das # hängt ein is an den Buchstaben z.B. D# = Dis
    Bünde-1-------3-------5-------7-------9----------12----------15------17------19------21----------24
    E||-F-|
    -F#|-G-|-G#|-A-|-A#|-H-|-C-|-C#|-D-|-D#|-E-|-F-|-F#|-G-|-G#|-A-|-A#|-H-|-C-|-C#|-D-|-D#|-E-|-------
    H||-C-|-C#|-D-|-D#|-E-|-F-|-F#|-G-|-G#|-A-|-A#|-H-|-C-|-C#|-D-|-D#|-E-|-F-|-F#|-G-|-G#|-A-|-A#|-H-|-------
    G||-G#|-A-|-A#|-H-|-C-|-C#|-D-|-D#|-E-|-F-|-F#|-G-|-G#|-A-|-A#|-H-|-C-|-C#|-D-|-D#|-E-|-F-|-F#|-G-|-------
    D||-D#|-E-|-F-|-F#|-G-|-G#|-A-|-A#|-H-|-C-|-C#|-D-|-D#|-E-|-F-|-F#|-G-|-G#|-A-|-A#|-H-|-C-|-C#|-D-|-------
    A||-A#|-H-|-C-|-C#|-D-|-D#|-E-|-F-|-F#|-G-|-G#|-A-|-A#|-H-|-C-|-C#|-D-|-D#|-E-|-F-|-F#|-G-|-G#|-A-|-------
    E||-F-|-F#|-G-|-G#|-A-|-A#|-H-|-C-|-C#|-D-|-D#|-E-|-F-|-F#|-G-|-G#|-A-|-A#|-H-|-C-|-C#|-D-|-D#|-E-|-------

    Die internationale Schreibweise macht aus dem im deutschsprachigen Sprachraum gebräuchlichen H ein B

    Standart-Stimmung international (E-A-D-G-B-E) H wird duch B ersetzt.
    Bünde-1-------3-------5-------7-------9----------12----------15------17------19------21----------24
    E||-F-|
    -F#|-G-|-G#|-A-|-A#|-B-|-C-|-C#|-D-|-D#|-E-|-F-|-F#|-G-|-G#|-A-|-A#|-B-|-C-|-C#|-D-|-D#|-E-|-------
    B||-C-|-C#|-D-|-D#|-E-|-F-|-F#|-G-|-G#|-A-|-A#|-B-|-C-|-C#|-D-|-D#|-E-|-F-|-F#|-G-|-G#|-A-|-A#|-B-|-------
    G||-G#|-A-|-A#|-B-|-C-|-C#|-D-|-D#|-E-|-F-|-F#|-G-|-G#|-A-|-A#|-B-|-C-|-C#|-D-|-D#|-E-|-F-|-F#|-G-|-------
    D||-D#|-E-|-F-|-F#|-G-|-G#|-A-|-A#|-B-|-C-|-C#|-D-|-D#|-E-|-F-|-F#|-G-|-G#|-A-|-A#|-B-|-C-|-C#|-D-|-------
    A||-A#|-B-|-C-|-C#|-D-|-D#|-E-|-F-|-F#|-G-|-G#|-A-|-A#|-B-|-C-|-C#|-D-|-D#|-E-|-F-|-F#|-G-|-G#|-A-|-------
    E||-F-|-F#|-G-|-G#|-A-|-A#|-B-|-C-|-C#|-D-|-D#|-E-|-F-|-F#|-G-|-G#|-A-|-A#|-B-|-C-|-C#|-D-|-D#|-E-|-------

    C-Stimmung international (C-G-C-F-A-D) H wird duch B ersetzt.
    Bünde-1-------3-------5-------7-------9----------12----------15------17------19------21----------24
    D||
    -D#|-E-|-F-|-F#|-G-|-G#|-A-|-A#|-B-|-C-|-C#|-D-|-D#|-E-|-F-|-F#|-G-|-G#|-A-|-A#|-B-|-C-|-C#|-D-|-------
    A||-A#|-B-|-C-|-C#|-D-|-D#|-E-|-F-|-F#|-G-|-G#|-A-|-A#|-B-|-C-|-C#|-D-|-D#|-E-|-F-|-F#|-G-|-G#|-A-|-------
    F||-F#|-G-|-G#|-A-|-A#|-B-|-C-|-C#|-D-|-D#|-E-|-F-|-F#|-G-|-G#|-A-|-A#|-B-|-C-|-C#|-D-|-D#|-E-|-F-|-------
    C||-C#|-D-|-D#|-E-|-F-|-F#|-G-|-G#|-A-|-A#|-B-|-C-|-C#|-D-|-D#|-E-|-F-|-F#|-G-|-G#|-A-|-A#|-B-|-C-|-------
    G||-G#|-A-|-A#|-B-|-C-|-C#|-D-|-D#|-E-|-F-|-F#|-G-|-G#|-A-|-A#|-B-|-C-|-C#|-D-|-D#|-E-|-F-|-F#|-G-|-------
    C||-C#|-D-|-D#|-E-|-F-|-F#|-G-|-G#|-A-|-A#|-B-|-C-|-C#|-D-|-D#|-E-|-F-|-F#|-G-|-G#|-A-|-A#|-B-|-C-|-------


    Für die C-Stimmung wird die tiefe E-Saite um 4 Töne tiefer gestimmt und alle anderen werden um 2 Töne tiefer gestimmt.

    ........Bünde-1-------3-------5-------7-------9----------12----------15------17------19------21----------24
    Bünde-1-------3-------5-------7-------9----------12----------15------17------19------21----------24
    ........E||-F-|-F#|-G-|-G#|-A-|-A#|-B-|-C-|-C#|-D-|-D#|-E-|-F-|-F#|-G-|-G#|-A-|-A#|-B-|-C-|-C#|-D-|-D#|-E-|-------
    D||-D#|-E-|-F-|-F#|-G-|-G#|-A-|-A#|-B-|-C-|-C#|-D-|-D#|-E-|-F-|-F#|-G-|-G#|-A-|-A#|-B-|-C-|-C#|-D-|-------

    ........
    Bünde-1-------3-------5-------7-------9----------12----------15------17------19------21----------24
    Bünde-1-------3-------5-------7-------9----------12----------15------17------19------21----------24
    ........B||-C-|-C#|-D-|-D#|-E-|-F-|-F#|-G-|-G#|-A-|-A#|-B-|-C-|-C#|-D-|-D#|-E-|-F-|-F#|-G-|-G#|-A-|-A#|-B-|-------
    A||-A#|-B-|-C-|-C#|-D-|-D#|-E-|-F-|-F#|-G-|-G#|-A-|-A#|-B-|-C-|-C#|-D-|-D#|-E-|-F-|-F#|-G-|-G#|-A-|-------

    ........
    Bünde-1-------3-------5-------7-------9----------12----------15------17------19------21----------24
    Bünde-1-------3-------5-------7-------9----------12----------15------17------19------21----------24
    ........G||-G#|-A-|-A#|-B-|-C-|-C#|-D-|-D#|-E-|-F-|-F#|-G-|-G#|-A-|-A#|-B-|-C-|-C#|-D-|-D#|-E-|-F-|-F#|-G-|-------
    F||-F#|-G-|-G#|-A-|-A#|-B-|-C-|-C#|-D-|-D#|-E-|-F-|-F#|-G-|-G#|-A-|-A#|-B-|-C-|-C#|-D-|-D#|-E-|-F-|-------

    ........
    Bünde-1-------3-------5-------7-------9----------12----------15------17------19------21----------24
    Bünde-1-------3-------5-------7-------9----------12----------15------17------19------21----------24
    ........D||-D#|-E-|-F-|-F#|-G-|-G#|-A-|-A#|-B-|-C-|-C#|-D-|-D#|-E-|-F-|-F#|-G-|-G#|-A-|-A#|-B-|-C-|-C#|-D-|-------
    C||-C#|-D-|-D#|-E-|-F-|-F#|-G-|-G#|-A-|-A#|-B-|-C-|-C#|-D-|-D#|-E-|-F-|-F#|-G-|-G#|-A-|-A#|-B-|-C-|-------

    ........
    Bünde-1-------3-------5-------7-------9----------12----------15------17------19------21----------24
    Bünde-1-------3-------5-------7-------9----------12----------15------17------19------21----------24
    ........A||-A#|-B-|-C-|-C#|-D-|-D#|-E-|-F-|-F#|-G-|-G#|-A-|-A#|-B-|-C-|-C#|-D-|-D#|-E-|-F-|-F#|-G-|-G#|-A-|-------
    G||-G#|-A-|-A#|-B-|-C-|-C#|-D-|-D#|-E-|-F-|-F#|-G-|-G#|-A-|-A#|-B-|-C-|-C#|-D-|-D#|-E-|-F-|-F#|-G-|-------

    .
    ...............Bünde-1-------3-------5-------7-------9----------12----------15------17------19------21----------24
    Bünde-1-------3-------5-------7-------9----------12----------15------17------19------21----------24
    ................E||-F-|-F#|-G-|-G#|-A-|-A#|-B-|-C-|-C#|-D-|-D#|-E-|-F-|-F#|-G-|-G#|-A-|-A#|-B-|-C-|-C#|-D-|-D#|-E-|-
    C||-C#|-D-|-D#|-E-|-F-|-F#|-G-|-G#|-A-|-A#|-B-|-C-|-C#|-D-|-D#|-E-|-F-|-F#|-G-|-G#|-A-|-A#|-B-|-C-|-------

    Falls dich das alles jetzt nicht zu sehr verwirrt, kannst du nun die TABs für die einzelnen Saiten verschieben. Wichtig dabei ist, dass die Notennamen weiterhin die selben sind. Ein C muss ein C bleiben und sollte die selbe Tonhöhe behalten wie im Original.

    Zum Beispiel:
    ........Bünde-1-------3-------5----
    Bünde-1-------3-------5-------7----
    ........E||-F-|-F#|-G-|-G#|-A-|-A#|
    D||-D#|-E-|-F-|-F#|-G-|-G#|-A-|-A#|

    wenn im Song ein F in C-Stimmung notiert ist, wird dieses in obigen Beispiel im 3. Bund gespielt. In die Standart-Stimmung verschoben (transponiert) spielst du das F im 1. Bund.

    Manche Töne in dem Stück sind bei einer Standartstimmung nicht vorhanden und müssen daher erst einmal weggelassen werden. Bei diesem Stück ist das aber nicht all zu schlimm für den Song.

    Probier es mal aus.

    Gruß silent
     
  8. silent

    silent Registrierter Benutzer

    Im Board seit:
    13.01.05
    Zuletzt hier:
    17.08.13
    Beiträge:
    680
    Zustimmungen:
    6
    Kekse:
    922
    Erstellt: 16.04.06   #8
    Ok, hier noch etwas zu den Sonderfällen, die nicht auf den selben Saiten transponiert werden können oder aus ergonomischen Gründen anders gegriffen werden sollten.

    D|---------------------------------------------------------------|
    A|---------------------------------------------------------------|
    F|---------------------------------------------------------------|
    C|0---0---0---0---0---0---0---0---0---0---0---0---0---0---0---0--|
    G|--0---0---0---0---0---0---0---0---0---0---0---0---0---0---0---0|
    C|---------------------------------------------------------------|

    ........Bünde-1-------3-------5
    Bünde-1-------3-------5-------7
    ........D||-D#|-E-|-F-|-F#|-G-|
    C||-C#|-D-|-D#|-E-|-F-|-F#|-G-|

    ........
    Bünde-1-------3-------5
    Bünde-1-------3-------5-------7
    ........A||-A#|-B-|-C-|-C#|-D-|
    G||-G#|-A-|-A#|-B-|-C-|-C#|-D-|

    ................Bünde-1-------3
    Bünde-1-------3-------5-------7
    ................E||-F-|-F#|-G-|
    C||-C#|-D-|-D#|-E-|-F-|-F#|-G-|

    Um das C der 3. Leersaite in die Standardstimmung zu transponieren muss ich sehen wo auf der D Saite dieses tiefe C ist, da es dieses C nicht gibt und die Saite mit D aufhört, muss ich auf die nächst tiefere Saite gehen, die A Saite. Hier suche ich mit das D und gehe tiefer bis zu C, das ich im 3. Bund der A Saite finde.
    Mit dem G der 2. Leersaite gehe ich genauso vor.

    Das Ergebins sieht dann so aus:

    e|---------------------------------------------------------------|
    h|---------------------------------------------------------------|
    g|---------------------------------------------------------------|
    d|---------------------------------------------------------------|
    A|3---3---3---3---3---3---3---3---3---3---3---3---3---3---3---3--|
    E|--3---3---3---3---3---3---3---3---3---3---3---3---3---3---3---3|

    Ein weiteres Beispiel befindet sich im Chorus:

    D|---------------------------------------------------|
    A|---------------------------------------------------|
    F|---------------------------------------------------|
    C|3---3---/---7---7---/--12----12----/----10----10---|
    G|--0---0------0---0--------10----10---------10----10|
    C|---------------------------------------------------|

    Transponiert:
    e|---------------------------------------------
    ------|
    h|---------------------------------------------
    ------|
    g|---------------------------------------------
    ------|
    d|---------------------------------------------------|
    A|8---8---/---9---9---/--15----15----/----13----13---|
    E|--3---3------3---3--------13----13---------13----13|


    Und nun noch die ergonomischere Variante, dabei habe ich die Töne gesucht die am nächsten zu eineander stehen und musste dabei die Saiten tauschen.
    die Töne sind die selben nur auf anderen Saiten. Um es für Anfänger nicht zu kompliziert zu machen habe ich nur die notwendigsten Stellen umgeschrieben.


    e|---------------------------------------------
    ------|
    h|---------------------------------------------
    ------|
    g
    |---------------------------------------------------|
    d|1---1-------2---2----------------------------------|
    A|--------/-----------/--
    15----15----/----13----13---|
    E|--3---3------3---3--------13----13---------13----13|

    Ich hoffe du kommst damit klar.

    lg silent
     
  9. silent

    silent Registrierter Benutzer

    Im Board seit:
    13.01.05
    Zuletzt hier:
    17.08.13
    Beiträge:
    680
    Zustimmungen:
    6
    Kekse:
    922
    Erstellt: 16.04.06   #9
    Und hier nochmal zum Vergleich:

    Code:
    
    ----------------------------------------------------------------------------
                     Feuer Und Wasser - Rammstein
    ----------------------------------------------------------------------------
    
    original Tuning: C-G-C-F-A-D
    transponiert in
    Standart Tuning: E-A-D-G-B-E
    
    
    Opening riff, with clean guitar:
    D|---------------------------------------------------------------|
    A|---------------------------------------------------------------|
    F|---------------------------------------------------------------|
    C|0---0---0---0---0---0---0---0---0---0---0---0---0---0---0---0--|
    G|--0---0---0---0---0---0---0---0---0---0---0---0---0---0---0---0|
    C|---------------------------------------------------------------|
    
    e|---------------------------------------------------------------|
    h|---------------------------------------------------------------|
    g|---------------------------------------------------------------|
    d|---------------------------------------------------------------|
    A|3---3---3---3---3---3---3---3---3---3---3---3---3---3---3---3--|
    E|--3---3---3---3---3---3---3---3---3---3---3---3---3---3---3---3|
    
    When Till Begin singing:
    D|-------------------|
    A|-------------------|
    F|-------------------| Repeat this 4 times.
    C|3-----5-----7---7--|
    G|--5-----7-----8---8|
    C|-------------------|
    
    e|-------------------|
    h|-------------------|
    g|-------------------| Repeat this 4 times.
    d|1-----3-----5---5--|
    A|--3-----5-----6---6|
    E|-------------------|
    
    Then:
    D|-------------------------|
    A|-------------------------|
    F|-------------------------|
    C|12------10-----8-----8---| 
    G|---13------12----10----10|
    C|-------------------------|
    
    e|----------------------|
    h|----------------------|
    g|----------------------|
    d|10------8-----6----6--|
    A|---11-----10----8----8|
    E|----------------------|
    
    
    D|-------------------|
    A|-------------------|
    F|-------------------| Repeat this 4 times.
    C|3-----5-----7---7--|
    G|--5-----7-----8---8|
    C|-------------------|
    
    e|-------------------|
    h|-------------------|
    g|-------------------| Repeat this 4 times.
    d|1-----3-----5---5--|
    A|--3-----5-----6---6|
    E|-------------------|
    
    
    D|-------------------------|
    A|-------------------------|
    F|-------------------------|
    C|12------10-----8-----8---| 
    G|---13------12----10----10|
    C|-------------------------|
    
    e|----------------------|
    h|----------------------|
    g|----------------------|
    d|10------8-----6----6--|
    A|---11-----10----8----8|
    E|----------------------|
    
    
    D|--------------------------------|
    A|--------------------------------|
    F|--------------------------------|
    C|0---0---0---0---0---0---0---0---|
    G|--0---0---0---0---0---0---0----0|
    C|--------------------------------|
    
    e|--------------------------------|
    h|--------------------------------|
    g|--------------------------------|
    d|--------------------------------|
    A|3---3---3---3---3---3---3---3---|
    E|--3---3---3---3---3---3---3----3|
    
    
    Clean Chrous:
    D|-----------------------------------------------------------|
    A|-----------------------------------------------------------|
    F|-----------------------------------------------------------|
    C|8----8----8----8----5----5----7----7-----0----0----0----0--|
    G|--8----8----8----8----5----5----7----7-----0----0----0----0|
    C|-----------------------------------------------------------|
    
    e|-----------------------------------------------------------|
    h|-----------------------------------------------------------|
    g|-----------------------------------------------------------|
    d|6----6----6----6----3----3----5----5-----------------------|
    A|--6----6----6----6----3----3----5----5---3----3----3----3--|
    E|-------------------------------------------3----3----3----3|
    
    
    D|------------------------------------------------------------|
    A|------------------------------------------------------------|
    F|------------------------------------------------------------|
    C|10----10----10----10------8---8---8---8-----5---5----7---7--|
    G|---10----10----10----10-----8---8---8---8-----5---5----7---7|
    C|------------------------------------------------------------|
    
    e|----------------------------------------------------|
    h|----------------------------------------------------|
    g|----------------------------------------------------|
    d|8---8---8---8-----6---6---6---6-----3---3----5---5--|
    A|--8---8---8---8-----6---6---6---6-----3---3----5---5|
    E|----------------------------------------------------|
    
    
    D|---------------------------------------------------|
    A|---------------------------------------------------|
    F|---------------------------------------------------|
    C|3---3---/---7---7---/--12----12----/----10----10---|
    G|--0---0------0---0--------10----10---------10----10|
    C|---------------------------------------------------|
    
    e|---------------------------------------------------|
    h|---------------------------------------------------|
    g|---------------------------------------------------|
    d|1---1-------2---2----------------------------------|
    A|--------/-----------/--15----15----/----13----13---|
    E|--3---3------3---3--------13----13---------13----13|
    
    
    D|---------------------------------------------------------------------|
    A|---------------------------------------------------------------------|
    F|---------------------------------------------------------------------|
    C|8---8---8---8-----5---5-----7---7-----0---0---0---0---0---0---0---0--|
    G|--8---8---8---8-----5---5-----7---7-----0---0---0---0---0---0---0---0|
    C|---------------------------------------------------------------------|
    
    e|---------------------------------------------------------------------|
    h|---------------------------------------------------------------------|
    g|---------------------------------------------------------------------|
    d|6---6---6---6-----3---3-----5---5------------------------------------|
    A|--6---6---6---6-----3---3-----5---5---3---3---3---3---3---3---3---3--|
    E|----------------------------------------3---3---3---3---3---3---3---3|
    
    
    Now Chrous with distorsion!
    D|-----------------------------------------------|
    A|-----------------------------------------------|
    F|-----------------------------------------------|
    C|8-8-8-8-8-8-8-8-5-5-5-5-7-7-7-7-0-0-0-0-0-0-0-0|
    G|8-8-8-8-8-8-8-8-5-5-5-5-7-7-7-7-0-0-0-0-0-0-0-0|
    C|8-8-8-8-8-8-8-8-5-5-5-5-7-7-7-7-0-0-0-0-0-0-0-0|
    
    e|-----------------------------------------------|
    h|-----------------------------------------------|
    g|-----------------------------------------------|
    d|6-6-6-6-6-6-6-6-3-3-3-3-5-5-5-5----------------|
    A|6-6-6-6-6-6-6-6-3-3-3-3-5-5-5-5-3-3-3-3-3-3-3-3|
    E|4-4-4-4-4-4-4-4-1-1-1-1-3-3-3-3-3-3-3-3-3-3-3-3|
    
    
    D|-------------------------------------------------------|
    A|-------------------------------------------------------|
    F|-------------------------------------------------------|
    C|10-10-10-10-10-10-10-10-8-8-8-8-8-8-8-8-5-5-5-5-7-7-7-7|
    G|10-10-10-10-10-10-10-10-8-8-8-8-8-8-8-8-5-5-5-5-7-7-7-7|
    C|10-10-10-10-10-10-10-10-8-8-8-8-8-8-8-8-5-5-5-5-7-7-7-7|
    
    e|-----------------------------------------------|
    h|-----------------------------------------------|
    g|-----------------------------------------------|
    d|8-8-8-8-8-8-8-8-6-6-6-6-6-6-6-6-3-3-3-3-5-5-5-5|
    A|8-8-8-8-8-8-8-8-6-6-6-6-6-6-6-6-3-3-3-3-5-5-5-5|
    E|6-6-6-6-6-6-6-6-4-4-4-4-4-4-4-4-1-1-1-1-3-3-3-3|
    
    D|-----------------------------------------------|
    A|-----------------------------------------------|
    F|-----------------------------------------------|
    C|8-8-8-8-8-8-8-8-5-5-5-5-7-7-7-7-0-0-0-0-0-0-0-0|
    G|8-8-8-8-8-8-8-8-5-5-5-5-7-7-7-7-0-0-0-0-0-0-0-0|
    C|8-8-8-8-8-8-8-8-5-5-5-5-7-7-7-7-0-0-0-0-0-0-0-0|
    
    e|-----------------------------------------------|
    h|-----------------------------------------------|
    g|-----------------------------------------------|
    d|6-6-6-6-6-6-6-6-3-3-3-3-5-5-5-5----------------|
    A|6-6-6-6-6-6-6-6-3-3-3-3-5-5-5-5-3-3-3-3-3-3-3-3|
    E|4-4-4-4-4-4-4-4-1-1-1-1-3-3-3-3-3-3-3-3-3-3-3-3|
    
    
    And after some times you do:
    D|---------|
    A|---------|
    F|---------|
    C|(0)---0-0|  Repeat 4 times.
    G|(0)---0-0|
    C|(0)---0-0|
       |    ...
       |     |
       |  Mute these 2 notes.
       |
     Let (0)ring a bit.
    
    And in this part the verse guitar is played too..
    
    e|---------|
    h|---------|
    g|---------|
    d|---------|  Repeat 4 times.
    A|(3)---3-3|
    E|(3)---3-3|
       |    ...
       |     |
       |  Mute these 2 notes.
       |
     Let (3)ring a bit.
    
    
    And in this part the verse guitar is played too..
    
    
    AND NOW, YIIIHAAAA! SOLO!
    D|----------------------------------10-----12-13-12|
    A|---11-10-------------10-11-8---10----------------|
    F|--------10--10--10-9-----------------------------|
    C|7------------------------------------------------|
    G|-------------------------------------------------|
    C|-------------------------------------------------|
    
    e|--------------------------8-----10-11-10|
    h|---9-8----------8-9-6---8---------------|
    g|------8--8--8-7-------------------------|
    d|5---------------------------------------|
    A|----------------------------------------|
    E|----------------------------------------|
    
    
    D|------------10------------------/--15--13--10--12--13-17-15-13-12-10-8/10|
    A|---------------------10-11-8---------------------------------------------|
    F|---9--10--7----7-7-7-----------------------------------------------------|
    C|7------------------------------------------------------------------------|
    G|-------------------------------------------------------------------------|
    C|-------------------------------------------------------------------------|
    
    e|-----------8----------------/--13--11--8--10--11-15-13-11-10-8-6/8|
    h|-------------------8-9-6------------------------------------------|
    g|---7--8--7---7-7-7------------------------------------------------|
    d|5-----------------------------------------------------------------|
    A|------------------------------------------------------------------|
    E|------------------------------------------------------------------|
    
    
    Rythm guitar: Chrous.
    
    
    One of the last times the chrous is played, there is a little change:
    D|-----------------------------------------------|
    A|-----------------------------------------------|
    F|-----------------------------------------------|
    C|8-8-8-8-8-8-8-8-5-5-5-5-7-7-7-7-0-0-0-0-0-0-0-0|
    G|8-8-8-8-8-8-8-8-5-5-5-5-7-7-7-7-0-0-0-0-0-0-0-0|
    C|8-8-8-8-8-8-8-8-5-5-5-5-7-7-7-7-0-0-0-0-0-0-0-0|
    
    e|-----------------------------------------------|
    h|-----------------------------------------------|
    g|-----------------------------------------------|
    d|6-6-6-6-6-6-6-6-3-3-3-3-5-5-5-5----------------|
    A|6-6-6-6-6-6-6-6-3-3-3-3-5-5-5-5-3-3-3-3-3-3-3-3|
    E|4-4-4-4-4-4-4-4-1-1-1-1-3-3-3-3-3-3-3-3-3-3-3-3|
    
    
    D|-----------------------------------------------------------------------|
    A|-----------------------------------------------------------------------|
    F|-----------------------------------------------------------------------|
    C|10-10-10-10-10-10-10-10-8-8-8-8-8-8-8-8-3-3-3-3-3-3-3-3-0-0-0-0-0-0-0-0|
    G|10-10-10-10-10-10-10-10-8-8-8-8-8-8-8-8-3-3-3-3-3-3-3-3-0-0-0-0-0-0-0-0|
    C|10-10-10-10-10-10-10-10-8-8-8-8-8-8-8-8-3-3-3-3-3-3-3-3-0-0-0-0-0-0-0-0|
    
    e|---------------------------------------------------------------|
    h|---------------------------------------------------------------|
    g|---------------------------------------------------------------|
    d|8-8-8-8-8-8-8-8-6-6-6-6-6-6-6-6-1-1-1-1-1-1-1-1----------------|
    A|8-8-8-8-8-8-8-8-6-6-6-6-6-6-6-6-1-1-1-1-1-1-1-1-3-3-3-3-3-3-3-3|
    E|6-6-6-6-6-6-6-6-4-4-4-4-4-4-4-4-----------------3-3-3-3-3-3-3-3|
    
    
    End:
    D|------------------------------------------------------------|
    A|------------------------------------------------------------|
    F|------------------------------------------------------------|
    C|10-10-10-10-10-10-10-10-8-8-8-8-8-8-8-8-5-5-5-5-7-7-7-7--(0)|
    G|10-10-10-10-10-10-10-10-8-8-8-8-8-8-8-8-5-5-5-5-7-7-7-7--(0)|
    C|10-10-10-10-10-10-10-10-8-8-8-8-8-8-8-8-5-5-5-5-7-7-7-7--(0)|
                                                                |
                                                                |
                                                                |
                                                       Let ring totaly OUT!
    
    e|----------------------------------------------------|
    h|----------------------------------------------------|
    g|----------------------------------------------------|
    d|8-8-8-8-8-8-8-8-6-6-6-6-6-6-6-6-3-3-3-3-5-5-5-5-----|
    A|8-8-8-8-8-8-8-8-6-6-6-6-6-6-6-6-3-3-3-3-5-5-5-5--(3)|
    E|6-6-6-6-6-6-6-6-4-4-4-4-4-4-4-4-1-1-1-1-3-3-3-3--(3)|
                                                        |
                                                        |
                                                        |
                                               Let ring totaly OUT!
    
    
    
    
    
    Eine gute Übung währe jetzt die Fehlersuche :D

    Übrigends habe ich noch ein paar Fehler ausgebessert im Vergleich zur PM.

    lg silent
     
  10. thei

    thei Threadersteller Registrierter Benutzer

    Im Board seit:
    15.04.06
    Zuletzt hier:
    9.11.06
    Beiträge:
    8
    Zustimmungen:
    0
    Kekse:
    10
    Erstellt: 16.04.06   #10
    hm... hab´s erstmal überflogen, sieht ziemlich schwierig aus, aber öh gibt´s dafür keine Software?:cool:
     
  11. silent

    silent Registrierter Benutzer

    Im Board seit:
    13.01.05
    Zuletzt hier:
    17.08.13
    Beiträge:
    680
    Zustimmungen:
    6
    Kekse:
    922
    Erstellt: 16.04.06   #11
  12. thei

    thei Threadersteller Registrierter Benutzer

    Im Board seit:
    15.04.06
    Zuletzt hier:
    9.11.06
    Beiträge:
    8
    Zustimmungen:
    0
    Kekse:
    10
    Erstellt: 16.04.06   #12
    Powertab hab ich schon, aber kann man damit auch die TABs umändern (lassen)?
     
  13. silent

    silent Registrierter Benutzer

    Im Board seit:
    13.01.05
    Zuletzt hier:
    17.08.13
    Beiträge:
    680
    Zustimmungen:
    6
    Kekse:
    922
    Erstellt: 16.04.06   #13
    Es müsste schon funktionieren, auf die schnelle finde ich allerdings auch keine Funktion.

    Im GitarPro habe ich sofort eine Funktion entdeckt, hole dir mal das Demo zum ausprobieren.

    Die Gitarrenspur auswählen => auf Spur klicken => Spureigenschaften auswählen => und dann die Stimmung der Gitarre ändern => auf ok drücken => und dann noch das Transponieren der Spur bestätigen.

    lg silten
     
Die Seite wird geladen...

mapping