Übung: Wechselschlag

von Joscha, 07.08.05.

  1. Joscha

    Joscha Registrierter Benutzer

    Im Board seit:
    15.05.05
    Zuletzt hier:
    13.03.12
    Beiträge:
    498
    Ort:
    Cuxhaven
    Zustimmungen:
    0
    Kekse:
    605
    Erstellt: 07.08.05   #1
    Hey,
    ich muss unbedingt meinen wechselschlag verbessern^^

    ich bleib andauernd mit dem plek hängen....gibt es irgendwelche speziellen übungen oder so?

    hab grad ma suche benutzt aber hat nichts wirklich tolles ausgespuckt!
     
  2. Bassistenschwein

    Bassistenschwein Helpful & Friendly User HFU

    Im Board seit:
    24.04.05
    Zuletzt hier:
    15.10.16
    Beiträge:
    1.555
    Zustimmungen:
    115
    Kekse:
    5.242
    Erstellt: 07.08.05   #2
    einfach finger auf irgendeinen bund und gleichbleibende sechzehntel spielen.
     
  3. Line6er

    Line6er Registrierter Benutzer

    Im Board seit:
    17.10.04
    Zuletzt hier:
    12.07.12
    Beiträge:
    244
    Ort:
    Berlin
    Zustimmungen:
    0
    Kekse:
    63
    Erstellt: 07.08.05   #3
    in der aktuellen (und der vorherigen) ausgabe der "guitar" (zeitschrift), wird dieses thema im detail besprochen und mit übungsbeispielen versehen :)
    vieleicht hilft dir das weiter...

    schönen tag noch
     
  4. msoada

    msoada Mod Emeritus Ex-Moderator

    Im Board seit:
    08.05.05
    Zuletzt hier:
    21.09.15
    Beiträge:
    4.498
    Ort:
    Belgrad
    Zustimmungen:
    62
    Kekse:
    5.984
    Erstellt: 07.08.05   #4
    Wie wärs denn mit der Spinne?

    immer von dem 1ten bis zum 4 ten bund spielen. der Fingersatz sollte klar sein, und das dann alle Seiten runter.
     
  5. thommy

    thommy Registrierter Benutzer

    Im Board seit:
    25.03.04
    Zuletzt hier:
    24.11.11
    Beiträge:
    4.586
    Ort:
    its better to burn out than to fade away ?? ...
    Zustimmungen:
    10
    Kekse:
    1.456
    Erstellt: 07.08.05   #5
    Spinne is ne gute Idee.

    Oder das Intro von Fear of the Dark von Iron Maiden
    PHP:
    E|---------------------------------|-----------------------------------------
    B|---------------------------------|---------------5-5---------5-------------
    G|-7-----7-7-9-9-10-10-9-9-7-7-9-9-|-5-----5-5-7-7-----7-7-5-5---5-----------
    D|---7-7---------------------------|---5-5-----------------------------------
    A|---------------------------------|-----------------------------------------
    E|---------------------------------|-----------------------------------------
     
  6. Killamangiro*

    Killamangiro* Registrierter Benutzer

    Im Board seit:
    19.04.05
    Zuletzt hier:
    27.01.10
    Beiträge:
    2.029
    Zustimmungen:
    5
    Kekse:
    888
    Erstellt: 07.08.05   #6
    die strophe von "sugar" von system of a down ;)
     
  7. patrice

    patrice Registrierter Benutzer

    Im Board seit:
    26.12.04
    Zuletzt hier:
    25.09.07
    Beiträge:
    865
    Ort:
    Melchnau (CH)
    Zustimmungen:
    1
    Kekse:
    350
    Erstellt: 07.08.05   #7
    Darf ich auch sehr empfehlen!
    Auf meiner Website habe ich dazu einen Workshop geschrieben (kommt wir wieder in den Sinn, da du jetzt gerade das Intro erwähnst).

    http://www.righthander.ch.vu
    -> auf Startseite unter den Artikeln bei "Der Wechselschlag" zu finden.
     
  8. 36 cRaZyFiSt

    36 cRaZyFiSt Registrierter Benutzer

    Im Board seit:
    21.08.04
    Zuletzt hier:
    12.10.16
    Beiträge:
    5.978
    Ort:
    Regensburg
    Zustimmungen:
    123
    Kekse:
    5.448
    Erstellt: 07.08.05   #8
    Also mich hat das Intro zu Papa Roach - Blood Brothers ziiiieeemlich weitergebracht :rolleyes:
    Code:
    ---------------------------------------------------------------
    ---------------------------------------------------------------
    ---7-7-10-7-9--------7-7-10-7---------7-------7-7-10-7-9-------
    --------------10-7-----------10-10-10--10----------------10-7--
    ---------------------------------------------------------------
    ---------------------------------------------------------------
    
    --------------------------
    --7-7-10-7----------------
    -----------10-7-7-8-7-----
    --------------------------
    --------------------------
    --------------------------
     
Die Seite wird geladen...

mapping