Wie geht AC/DC - Who Made Who?

von Kompetenzbestie, 11.05.06.

  1. Kompetenzbestie

    Kompetenzbestie Registrierter Benutzer

    Im Board seit:
    18.11.03
    Zuletzt hier:
    4.12.16
    Beiträge:
    354
    Ort:
    Hannover
    Zustimmungen:
    69
    Kekse:
    3.692
    Erstellt: 11.05.06   #1
    Hallo liebe Angusjünger!
    Alle außer mir in meiner Band wollen Who Made Who von AC/DC spielen (meiner Meinung nach ein totaler Luschensong ;) ).

    Die große Frage: Wie wird konkret Angus' Part mit dem Tapping (?) in der Strophe gespielt.
    Oder wird da garnix getappt?

    Viele Grüße
    Matze
     
  2. lillbub

    lillbub Registrierter Benutzer

    Im Board seit:
    07.02.06
    Zuletzt hier:
    25.07.10
    Beiträge:
    9
    Zustimmungen:
    0
    Kekse:
    10
    Erstellt: 11.05.06   #2
    Ich hab das live-songbook daheim und darin ist es wie folgt geschrieben:

    e ----------------------------------------------------------
    b ----------------------------------------------------------
    g -14-------------------------------------------------------
    D ----\-0-4-5-0-7-0-5-0-4-0-5-0-7-0-5-0-4-0-5-0-7-0-5-0-4-0-
    A ----------------------------------------------------------
    E ----------------------------------------------------------
    e ----------------------------------------------------------
    b ----------------------------------------------------------
    g ----------------------------------------------------------
    D 5-0-7-0-5-0-4-0-5-0-7-0-5-0-4-0-5-0-7-0-5-0-4-0-5-0-7-0-5-
    A ----------------------------------------------------------
    E ----------------------------------------------------------

    T T T T T T T T T T
    e ----------------------------------------------------------
    b ----------------------------------------------------------
    g ----------------------------------------------------------
    D 0-4-0-5-0-7-0-5-0-----------------------------------------
    A ----------------------6-2-7-2-9-2-7-2-6-2-7-2-9-2-7-2-6-2-7-2
    E ----------------------------------------------------------

    e T---T---T---T---T---T------------------------------------------
    b ----------------------------------------------------------
    g ----------------------------------------------------------
    D ----------------------------------------------------------
    A 9-2-7-2-6-2-7-2-9-2-7-0-4-0-5-0-7-0-5-0-4-0-5-0-7-0-5-0-4-
    E ----------------------------------------------------------

    e ----------------------------------------------------------
    b ----------------------------------------------------------
    g ----------------------------------------------------------
    D ----------------------------------------------------------
    A 0-5-0-7-0-5-0-4-0-5-0-7-0-5-0-4-0-5-0-7-0-5-0-4-0-5-0-7-0-
    E ----------------------------------------------------------

    e ----------------------------------------------------------
    b ----------------------------------------------------------
    g ----------------------------------------------------------
    D -------------------------------------------4-0-5-0-7-0-5-0-4-0-5-
    A 5-0-4-0-5-0-7-0-5-0-4-0-5-0-7-0-5-0-----------------------
    E ----------------------------------------------------------

    e ----------------------------------------------------------
    b ----------------------------------------------------------
    g ----------------------------------------------------------
    D 0-7-0-5-0-4-0-5-0-7-0-5-0-4-0-5-0-7-0-5-0-4-0-5-0-7-0-5-0-
    A ----------------------------------------------------------
    E ----------------------------------------------------------

    e ------------------------------------------------|
    b -------------------------------------------------
    g -------------------------------------------------
    D 4-0-5-0-7-0-5-0-4-0-5-0-7-0-5-0-4-0-5-0-7-0-5-0--
    A -------------------------------------------------
    E ------------------------------------------------|


    Ich hoffe du hast das gemeint und es hilft dir weiter.
     
  3. reaper_cob

    reaper_cob Registrierter Benutzer

    Im Board seit:
    02.03.06
    Zuletzt hier:
    31.12.09
    Beiträge:
    298
    Ort:
    Mülheim an der Ruhr
    Zustimmungen:
    0
    Kekse:
    74
    Erstellt: 11.05.06   #3
  4. Kompetenzbestie

    Kompetenzbestie Threadersteller Registrierter Benutzer

    Im Board seit:
    18.11.03
    Zuletzt hier:
    4.12.16
    Beiträge:
    354
    Ort:
    Hannover
    Zustimmungen:
    69
    Kekse:
    3.692
    Erstellt: 12.05.06   #4
    Hi lillbub
    Ja, genau das hab ich gemeint. Danke schonmal. Leider hab ich nur die grottige Studio-Version, die ist in C. Aber das von Dir gepostete Tab, und somit auch die Live-Version dürften in D sein, oder?
    Dagegen spricht allerdings die Hörprobe der Live-Version, die ich grad im Web gefunden habe, die hört sich nach C an. Haben die (oder nur Angus) da vielleicht hochgestimmt und spielen es wie D. Diese Tapping-Geschichte ist ja echt nicht ohne, scheint mir.
    Bitte weitere Tips posten.

    Viele Grüße
    Matze

    PS: Leider hab ich kein Guitar Pro
     
Die Seite wird geladen...

mapping