Wie nennt man diese Riffs?

von aZjdY, 15.06.08.

  1. aZjdY

    aZjdY Registrierter Benutzer

    Im Board seit:
    28.07.07
    Zuletzt hier:
    4.10.15
    Beiträge:
    4.180
    Zustimmungen:
    38
    Kekse:
    10.921
    Erstellt: 15.06.08   #1
    Titel sagt schon alles :)

    Code:
    -----------------------------------------|
    -----------------------------------------|
    -----------------------------------------|
    ------------------7----5----3----2-------|
    --------3----5------------------------3--|
    --0--0----0----0----0----0----0----0-----|
      
    ------------------------------------------|
    ------------------------------------------|
    ------------------------------------------|
    ------------10----8---------8-------------|
    -------8---------------8---------12----8--|
    -8--8----8-----8----8----8----8-----8-----|
     
    -----------------------------------------|
    -----------------------------------------|
    -----------------------------------------|
    ------------------8----7---------5----7--|
    --------5----7--------------5------------|
    --5--5----5----5----5----5----5----5-----|
     
    ----------------------------------------|
    ----------------------------------------|
    ----------------------------------------|
    -------------7------------------5----2--|
    --------5---------8--------3------------|
    --5--5----5----5-----3--3----3----3-----|
    MfG :)
     
  2. DenniZ_10000

    DenniZ_10000 Registrierter Benutzer

    Im Board seit:
    12.01.06
    Zuletzt hier:
    29.08.14
    Beiträge:
    1.339
    Ort:
    Hamburg
    Zustimmungen:
    4
    Kekse:
    1.441
    Erstellt: 15.06.08   #2
    Single note riff?
     
  3. aZjdY

    aZjdY Threadersteller Registrierter Benutzer

    Im Board seit:
    28.07.07
    Zuletzt hier:
    4.10.15
    Beiträge:
    4.180
    Zustimmungen:
    38
    Kekse:
    10.921
    Erstellt: 15.06.08   #3
    Nein, die haben nen besonderen Namen, ich hab das mal hier im Forum irgendwo gelesen :)
     
  4. madeye

    madeye Registrierter Benutzer

    Im Board seit:
    10.04.06
    Zuletzt hier:
    4.12.16
    Beiträge:
    1.618
    Ort:
    Hagen (NRW)
    Zustimmungen:
    14
    Kekse:
    1.366
    Erstellt: 15.06.08   #4
    staccato riffs meinst du glaub ich
     
  5. aZjdY

    aZjdY Threadersteller Registrierter Benutzer

    Im Board seit:
    28.07.07
    Zuletzt hier:
    4.10.15
    Beiträge:
    4.180
    Zustimmungen:
    38
    Kekse:
    10.921
    Erstellt: 15.06.08   #5
    Ja genau :)
     
  6. Chris85

    Chris85 Registrierter Benutzer

    Im Board seit:
    29.05.06
    Zuletzt hier:
    8.10.14
    Beiträge:
    83
    Zustimmungen:
    1
    Kekse:
    110
  7. dixo

    dixo Registrierter Benutzer

    Im Board seit:
    03.06.07
    Zuletzt hier:
    19.01.13
    Beiträge:
    361
    Ort:
    Neumarkt stmk austria
    Zustimmungen:
    0
    Kekse:
    287
    Erstellt: 15.06.08   #7
    Nein, das müssen nicht staccato Licks/Riffs sein, aber auf jeden fall Pedaltonlicks.


    lg fe
     
Die Seite wird geladen...

mapping