Wintersun - Death and the Healing

R

R4g3

Registrierter Benutzer
Zuletzt hier
17.02.08
Mitglied seit
03.06.04
Beiträge
201
Kekse
10
Ort
Berg. Gladbach
Hi!

Was sind das für Akkorde die in dem kurzen Akustik teil gespielt werden ( ich geh doch stark davon aus, dass es zerlegte Akkorde sind...)

Ich liebe dieses Lied so abgöttisch...............unglaublich :)
 
K

Knufinke

Registrierter Benutzer
Zuletzt hier
30.08.06
Mitglied seit
23.04.05
Beiträge
1
Kekse
23
Hi

wenn ich mich nicht irre meinst du den teil hier :)


C |--------------------------------------|
G |--------------------------------------|
D#|-----------7-----------------7--------|
A#|--------9-----9-----------9-----9-----|
F |-----9-----------9-----9-----------9--|
C |--7-----------------7-----------------|


--------------------------------------|
--------------------------------------|
-----------7-----------------6--------|
--------9-----9-----------7-----7-----|
-----9-----------9-----7-----------7--|
--7-----------------5-----------------|


-----------------------------------------------|
--5--------------------------------------------|
-----6--------------4-----------------4--------|
--------7--------6-----6-----------6-----6-----|
--------------7-----------7-----7-----------7--|
-----------4-----------------4-----------------|


|---------------------------------------|--------------------------------------|
|---------------------------------------|--------------------------------------|
|------------7-----------------7--------|-----------7-----------------6--------|
|---------9-----9-----------9-----9-----|--------9-----9-----------7-----7-----|
|------9-----------9-----9-----------9--|-----9-----------9-----7-----------7--|
|---7-----------------7-----------------|--7-----------------5-----------------|

------------------------------------------------|
--5--------------------------5------------------|
-----6--------------4-----------------4---------|
--------7--------6-----6-----------6-----6------|
--------------7-----------7-----7-----------7---|
-----------4-----------------4------------------|

hey, das war mein erster post *freu*
 
R

R4g3

Registrierter Benutzer
Zuletzt hier
17.02.08
Mitglied seit
03.06.04
Beiträge
201
Kekse
10
Ort
Berg. Gladbach
Verdammt, wo hast du dass den her????????

Geil, danke!!!!! Super erster Beitrag, hast schon jemanden richtig geholfen =)

THX!
 
C

Cypher

Registrierter Benutzer
Zuletzt hier
30.10.14
Mitglied seit
10.06.04
Beiträge
801
Kekse
44
wo wir grade bei wintersun sind, hat jemand den tab zu "Sleeping Stars"?
der beste song des albums :great:
 
b_z_und_weg

b_z_und_weg

Registrierter Benutzer
Zuletzt hier
24.10.06
Mitglied seit
21.04.05
Beiträge
50
Kekse
20
Ort
HL
Leider nicht...aber ich finde, wir sollten diesen Thread oben halten, denn Wintersun ist ne großartige Band und vielleicht findet man ja mal jemanden, der die Tabs hat!! :D
 
Mxm

Mxm

Registrierter Benutzer
Zuletzt hier
10.09.12
Mitglied seit
21.08.04
Beiträge
339
Kekse
220
b_z_und_weg schrieb:
Leider nicht...aber ich finde, wir sollten diesen Thread oben halten, denn Wintersun ist ne großartige Band und vielleicht findet man ja mal jemanden, der die Tabs hat!! :D

Ich würde eher sagen Jari Mäenpää ist ein geiler Musiker ;)

Der hat das Album nämlich im Alleingang aufgenommen (bis auf die drums), die "Band" hat er sich Monate danach zusammengesucht.


MfG
snake
 
b_z_und_weg

b_z_und_weg

Registrierter Benutzer
Zuletzt hier
24.10.06
Mitglied seit
21.04.05
Beiträge
50
Kekse
20
Ort
HL
*schmunzel* Ist ja nicht zu Unrecht nach ihm benannt!! ;)
Kai Hahto hat aber da auch schon Drums gespielt...also im Prinzip waren es immerhin schon zwei, auch, wenn Jari es praktisch selbst verwirklich hat, hast schon Recht!! :)
 
Mxm

Mxm

Registrierter Benutzer
Zuletzt hier
10.09.12
Mitglied seit
21.08.04
Beiträge
339
Kekse
220
*schmunzel* ist in deinem text irgendeine ergänzung zu finden?

ich glaube nein :)


MfG
snake
 
R

R4g3

Registrierter Benutzer
Zuletzt hier
17.02.08
Mitglied seit
03.06.04
Beiträge
201
Kekse
10
Ort
Berg. Gladbach
Jari ist ein absoluter Vollblut Profi wenn ihr mich fragt. Wie der mit Melodien umgehen kann, und wie er es schafft diese unbeschreibliche Atmosphäre in das Album zu bringen;und nicht zuletzt auch sein technisches Können^^. Wintersun ist absolut unter den Top 5 meiner Plattensammlung.

Hat irgendjemand die Melodie von STARCHILD??? Auch super. Das gibts leider noch nich als GuitarPro AFAIK.

Hab übrigens rausgefunden wo der Akkustik Teil steht, einfach in dem GP File auf Guitar 3 klicken. Da hab ich erstmal gemerkt wie aufwendig dass Ding ist und wieviel Mühe und Arbeit da drin steckt. Kann doch eigentlich nur Jari selbst gemacht haben, oder???? ;-)
 
R

R4g3

Registrierter Benutzer
Zuletzt hier
17.02.08
Mitglied seit
03.06.04
Beiträge
201
Kekse
10
Ort
Berg. Gladbach
Wintersun - Starchild
Tab by Vini.
Top 4 strings for main riff: (i'll just do the intro for now)


E-------------------------------------------------------------------------------
B-------------------5-----------------------------------------------------------
G--------------5-7----7-----5--4-------4-5--7-5-7-4--5-4----------4--5-4-
D---7--5-7-5-------------5-------7--7-----------------------7-5--5---------7


E------------------------------------------------------------------------------
B----------------------5----5----------------------5---------5--5------------
G------5----5----5-7----7----7--5-4-------4-5-----7--5-4-------7--5-4---
D---7----7----7-----------------------7--7----------------------------------7




Rhythm (bottom 3 strings) bass also follows the same line:
TIP! Learn to shred like a motherfucker!

D-2-2-2-2-2-2-2-2----------------------2-2-2-2-2-2------2-2-2-2-2-2-2-2-
A-0-0-0-0-0-0-0-0-5-5-5-5-5-5-5-5-0-0-0-0-0-0-5-5-0-0-0-0-0-0-0-0---
E----------------------3-3-3-3-3-3-3-3----------------3-3-------------------


D-5-5-5-5-5-5-5-5-5-5-5-5------------2-2-2-2-----------2-2-2-2-2-2-2-2-7-7
A-3-3-3-3-3-3-3-3-3-3-3-3-5-5-5-5-0-0-0-0-5-5-5-5-0-0-0-0-0-0-0-0-5-5-
E--------------------------------3-3-3-3-----------3-3-3-3----------------------


D-7-7-7-7-7-7-2-2-2-2-2-2-2-2-5-5-5-5-5-5-5-5----------------------2-2-2-2
A-5-5-5-5-5-5-0-0-0-0-0-0-0-0-3-3-3-3-3-3-3-3-5-5-5-5-5-5-5-5-0-0-0-0-
E----------------------------------------------------------3-3-3-3-3-3-3-3------


D-2-2-2-2----------------------2-2-2-2-2-2-2-2-------
A-0-0-0-0-5-5-5-5-5-5-5-5-0-0-0-0-0-0-0-0---------
E-----------3-3-3-3-3-3-3-3----------------------------

That shud be it sorry for any mistakes!





hab meine frage grad selbstbeantwortet. Das da oben hab ich im Wintersun Forum der HP gefunfen, da is n Beitrag übe rTabs. Viel Spass damit!
 
1

123

Registrierter Benutzer
Zuletzt hier
21.09.13
Mitglied seit
12.04.04
Beiträge
402
Kekse
105
Übrigens: Bei mysongbook.com gibt schon Tabs zu Beyond the Dark Sun und Death and The Healing, die sich gut anhören
 
b_z_und_weg

b_z_und_weg

Registrierter Benutzer
Zuletzt hier
24.10.06
Mitglied seit
21.04.05
Beiträge
50
Kekse
20
Ort
HL
snake4ever schrieb:
*schmunzel* ist in deinem text irgendeine ergänzung zu finden?

ich glaube nein :)


MfG
snake

Naja, sagen wir mal, du hast gesagt, dass er da der geile Musiker ist. Aber den Drummer kannst du auch nicht ganz vernachlässigen...das wars nur!! Aber lassen wir das Thema, wird nur zu Spam!! ;)
 
Mxm

Mxm

Registrierter Benutzer
Zuletzt hier
10.09.12
Mitglied seit
21.08.04
Beiträge
339
Kekse
220
b_z_und_weg schrieb:
Naja, sagen wir mal, du hast gesagt, dass er da der geile Musiker ist. Aber den Drummer kannst du auch nicht ganz vernachlässigen...das wars nur!! Aber lassen wir das Thema, wird nur zu Spam!! ;)


liest du meine beiträge wirklich? auch zwischen den klammern?
 

Ähnliche Themen

Unser weiteres Online-Angebot:
Bassic.de · Deejayforum.de · Sequencer.de · Clavio.de · Recording.de

Musiker-Board Logo
Oben