Frage zu "Dimmu Borgir - Burn in Hell"

von Der Chief, 29.12.03.

  1. Der Chief

    Der Chief Registrierter Benutzer

    Im Board seit:
    28.09.03
    Zuletzt hier:
    8.09.08
    Beiträge:
    255
    Zustimmungen:
    0
    Kekse:
    150
    Erstellt: 29.12.03   #1
    Hallo,

    bei dem Lied "Burn in Hell" von Dimmu Borgir gibt es so eine stelle bei welcher man spielen muss:
    [code:1]|------------------|-------------------|
    |------------------|-------------------|
    |-------------12-9-|--------------12-9-|
    |-2--2---9-12------|---------9-12------|
    |-0--0-------------|-2-2-2-2-----------|
    |------------------|-0-0-0-0-----------|

    [/code:1]

    Diese Stelle zu spielen ist an sich nicht schwer,nur sagte mir mein Gitarrenlehrer,dass man das ganze (also die Stelle mit dem 9. + 12. Bund)
    auch ne Ecke tiefer spielen könnte.Würde sich dann voller anhören.
    Er hat mir auch die Bünde genannt welche ich dazu greifen muss...habs aber vergessen ^^
    Also ich wär euch sehr dankbar wenn ihr mir sagen könntet welche Bünde ich greifen muss damit sich diese Stelle voller anhört...sprich ich will die Stelle nicht in den 9. und 12. Bünden spielen sondern in den 3. und 4. (z.B.).Auf jeden fall das Ganze tiefer.

    Danke schonmal im Voraus,
    Der Chief!
     
  2. derYosh

    derYosh Registrierter Benutzer

    Im Board seit:
    19.08.03
    Zuletzt hier:
    28.11.16
    Beiträge:
    1.089
    Ort:
    Neuwied
    Zustimmungen:
    6
    Kekse:
    843
    Erstellt: 29.12.03   #2
    ich hab's rausgehört und das automatisch folgendermaßen gespielt:

    e|---------------------------------------
    H|---------------------------------------
    G|------------0-------------------------
    D|-------(0)------2---------------------
    A|--0--2--------------------------------
    E|---------------------------------------

    keine garantie!!!!
    ich hab's immer so gespielt und so klang's auch
    -¥osh

    PS. haste schon mal das Original von Twisted Sister gehört? voll lol
     
Die Seite wird geladen...

mapping