Funeral for a friend - roses for the dead

von Millencolin, 08.07.05.

  1. Millencolin

    Millencolin Registrierter Benutzer

    Im Board seit:
    20.01.05
    Zuletzt hier:
    9.12.06
    Beiträge:
    1
    Zustimmungen:
    0
    Kekse:
    10
    Erstellt: 08.07.05   #1
    Moin Jungs!

    bin schon seid längerem hier angemeldet, war bis jetzt aba nur blinder passagier ;)
    Kennt ihr das Lied " roses for the dead" von FFAF ? hab jezz auch leider keine möglichkeit das hochzuladen, wenn wer ne möglichkeit sieht sagt bescheid!
    Mir gehts um den Anfang des Liedes! Sicher ist das es Tapping ist.

    Bin aber noch ziemlicher neuling in sachen tapping, wobei ich die grundlagen wie pull offs und hammer ons bereits am üben bin :)

    so hier die tabs

    eb-------------------------------------------------------------------------|
    bb--------------------------12-----------------------------------12--------|
    gb-----12-----11-------------------11-------12-----11-------------------11-|
    Db---9---------------12-------------------9---------------12---------------|
    Ab-7--------7------7------7------7------7--------7------7------7------7----|
    Db-------------------------------------------------------------------------|

    eb-------------------------------------------------------------------------|
    bb--------------------------12-----------------------------------12--------|
    gb-----12-----11-------------------11-------12-----11-------------------11-|
    Db---5---------------12-------------------7---------------12---------------|
    Ab-3--------3------3------3------3------5--------5------5------5------5----|
    Db-------------------------------------------------------------------------|

    Denk ma schon das es einige hier hin bekommen, wenn ja bitte mit detailierte erklärung, danke schonma!
     
Die Seite wird geladen...

mapping