Liste mit Intervallen

von 101010-fender, 16.08.06.

  1. 101010-fender

    101010-fender Registrierter Benutzer

    Im Board seit:
    20.08.03
    Zuletzt hier:
    2.10.12
    Beiträge:
    1.576
    Zustimmungen:
    1
    Kekse:
    1.930
    Erstellt: 16.08.06   #1
    Hey,
    ich bräuchte umbedingt einmal eine Liste, in der gezeigt wird, welche Töne miteinander harmonieren, also welches Intervall zu welchem Ton passt.

    Hier mal ein Beispiel :

    Code:
    D |--------------------|--------------------|
    A |--------------------|--------------------|
    F |--------------------|--------------------|
    C |--------------------|--------------------|
    G |-----5-----7-----8--|-----5-----7-----8--|
    C |--0-----0-----0-----|--0-----0-----0-----|
    
    
                                                                   
    --------------------|--------------------|--------------------|
    --------------------|--------------------|--------------------|
    --------------------|--------------------|--------------------|
    --------------------|--------------------|--------------------|
    -----5-----7-----8--|-----5-----7-----8--|-----5-----7-----8--|
    --8-----8-----8-----|--5-----5-----5-----|--0-----0-----0-----|
    
    
                                                                     
    --------------------|--------------------|----------------------|
    --------------------|--------------------|----------------------|
    --------------------|--------------------|----------------------|
    --------------------|--------------------|--------10--------10--|
    -----5-----7-----8--|-----5-----7-----8--|--7--8------7--8------|
    --0-----0-----0-----|--8-----8-----8-----|----------------------|
    
    
                                                                   
    --------------------|--------------------|--------------------|
    --------------------|--------------------|--------------------|
    --------------------|--------------------|--------------------|
    --------------------|--------------------|--------------------|
    -----5-----7-----8--|-----5-----7-----8--|-----5-----7-----8--|
    --0-----0-----0-----|--0-----0-----0-----|--8-----8-----8-----|
    
    
                                                                   
    --------------------|--------------------|--------------------|
    --------------------|--------------------|--------------------|
    --------------------|--------------------|--------------------|
    --------------------|--------------------|--------------------|
    -----5-----7-----8--|-----5-----7-----8--|-----5-----7-----8--|
    --5-----5-----5-----|--0-----0-----0-----|--0-----0-----0-----|
    
    
                                                         
    --------------------|----------------------|
    --------------------|----------------------|
    --------------------|----------------------|
    --------------------|--------10--------10--|
    -----5-----7-----8--|--7--8------7--8------|
    --8-----8-----8-----|----------------------|
    Code:
                                                                        
    D |----------------------|----------------------|----------------------|
    A |----------------------|----------------------|----------------------|
    F |----------------------|----------------------|----------------------|
    C |----------------------|----------------------|----------------------|
    G |-----8-----10-----12--|-----8-----10-----12--|-----8-----10-----12--|
    C |--0-----0------0------|--0-----0------0------|--8-----8------8------|
    
    
                                                                       
    --------------------|----------------------|----------------------|
    --------------------|----------------------|----------------------|
    --------------------|----------------------|----------------------|
    -----------5-----7--|----------------------|----------------------|
    -----8--------------|-----8-----10-----12--|-----8-----10-----12--|
    --5-----5-----5-----|--0-----0------0------|--0-----0------0------|
    
    
                                                                             
    ----------------------|--------------------------|----------------------|
    ----------------------|--------------------------|----------------------|
    ----------------------|--------------------------|----------------------|
    ----------------------|----------14----------14--|----------------------|
    -----8-----10-----12--|--10--12------10--12------|-----8-----10-----12--|
    --8-----8------8------|--------------------------|--0-----0------0------|
    
    
                                                                       
    ----------------------|----------------------|--------------------|
    ----------------------|----------------------|--------------------|
    ----------------------|----------------------|--------------------|
    ----------------------|----------------------|-----------5-----7--|
    -----8-----10-----12--|-----8-----10-----12--|-----8--------------|
    --0-----0------0------|--8-----8------8------|--5-----5-----5-----|
    
    
                                                                         
    ----------------------|----------------------|----------------------|
    ----------------------|----------------------|----------------------|
    ----------------------|----------------------|----------------------|
    ----------------------|----------------------|----------------------|
    -----8-----10-----12--|-----8-----10-----12--|-----8-----10-----12--|
    --0-----0------0------|--0-----0------0------|--8-----8------8------|
    
    
                                                                  
    --------------------------|
    --------------------------|
    --------------------------|
    ----------14----------14--|
    --10--12------10--12------|
    --------------------------|
    Das Lied wird mit zwei Gitarren gespielt und es harmonieren in den ersten beiden Takten
    C ; D ; D# (Bsp. 1) mit D# ; F ; G (Bsp. 2 ), also wären zwischen C<-->D# und D<-->F kleine Terzen und zwischen D#<-->G eine große Terz ja ?
    Nur wie wende ich das richtig an, wenn ich schon z.b. die erste Gitarre geschrieben hab und ich sie mit der zweiten harmonieren lassen will ?

    Wäre euch sehr sehr dankbar.
     
  2. cocolino

    cocolino Registrierter Benutzer

    Im Board seit:
    08.04.06
    Zuletzt hier:
    13.02.09
    Beiträge:
    245
    Ort:
    nähe regensburg
    Zustimmungen:
    0
    Kekse:
    77
    Erstellt: 19.08.06   #2
  3. clemO

    clemO Registrierter Benutzer

    Im Board seit:
    20.08.06
    Zuletzt hier:
    31.01.08
    Beiträge:
    9
    Zustimmungen:
    0
    Kekse:
    10
    Erstellt: 22.08.06   #3
    Also i.d.R. unterscheidet man zwischen konsonanten und dissonanten Intervallen. Konsonante Intervalle "passen" zusammen oder erzeugen mehr oder weniger Wohlklang wohingegen dissonante Intervalle eher "schräg" klingen und den mehr oder minder begabten Musiker zur auflösung in ein konsonantes Intervall "zwingt".

    Die Empfindung, welche Intervalle konsonant und welche dissonant und damit auflösungsbedürftig klingen, schwankt individuell, lokal, kulturell und vor allem historisch!

    Im Mittelalter galten in Mitteleuropa nur Prim, Quart, Quint und Oktav als konsonant.
    In der Renaissance kamen gr./kl. Terz und Sext dazu
    Im 20. Jh mit beginn der Spätromantik und des Jazz hat sich das dann sowieso relativiert!

    In der modernen U-Musik gelten aber im Grunde auch nur Prim, Terz, Quart, Quint, Sext und Oktav als konsonant, wobei Prim (zweimal der gleiche Ton) und Oktav (gleiche benennung in der Harmonik) nicht als eigentliche Intervalle benutzt werden sondern in der Stimmführung eher zur verstärkung von Lautstärke und bestimmten Stimmungen verwendet werden.

    Die Namen der Intervalle sind von den lateinischen Ordnungszahlen hergeleitet und kennzeichnen nicht die Halbtonschritte sondern die Tonschritte innerhalb einer diatonischen Tonleiter (Dur, Moll oder andere Kirchentonleitern) wobei der erste Ton mitgezählt wird.

    Prim - 0 Halbtöne - I. Stufe
    kl. Sekunde - 1 Halbton - II. Stufe
    gr. Sekunde - 2 Halbtöne - II. Stufe
    kl. Terz - 3 Halbtöne - III. Stufe
    gr. Terz - 4 Halbtöne - III. Stufe
    Quarte - 5 Halbtöne - IV. Stufe
    Tritonus - 6 Halbtöne - *)
    Quinte - 7 Halbtöne - V. Stufe
    kl. Sexte - 8 Halbtöne - VI. Stufe
    gr. Sexte - 9 Halbtöne - VI. Stufe
    kl. Septime - 10 Halbtöne - VII. Stufe
    gr. Septime - 11 Halbtöne - VII. Stufe
    Oktave - 12 Halbtöne - VIII./ I. Stufe

    *) Der Tritonus kommt in Dur und reinem Moll nicht vor. (vom Grundton aus gerechnet) In anderen Tonleitern wie lydisch bzw. lokrisch ist er entweder übermäßige Quarte oder verminderte Quinte.

    Tja... mehr fällt mir jetzt erstmal nicht ein! Frag wenn du Fragen hast! Ansonsten kannst du nur ausprobieren, was guts klingt und wa nicht, wohin dich die Dissonanzen bringen und so weiter! Es gibt leider kein Patentrezept was gut zueinander passt und was nicht! Versuch macht kluch... :great:
     
Die Seite wird geladen...