Ohne Kapodaster spielen?

von mailo, 19.04.06.

  1. mailo

    mailo Registrierter Benutzer

    Im Board seit:
    01.08.04
    Zuletzt hier:
    5.08.15
    Beiträge:
    38
    Zustimmungen:
    0
    Kekse:
    10
    Erstellt: 19.04.06   #1
    Hi, ich hab mal ne doofe Frage.

    Kann man songs die eigentlich mit kapodaster im "x'ten" bund gespielt werden auch ohne kapodaster spielen, indem man andere akkorde spielt oder so?
    oder die gitarre ander stimmt?

    ich will nämmlich nicht immer n kapodaster mitnehmen...

    mfg mailo
     
  2. Rockminstrel

    Rockminstrel Registrierter Benutzer

    Im Board seit:
    21.02.06
    Zuletzt hier:
    25.11.12
    Beiträge:
    355
    Ort:
    bei München
    Zustimmungen:
    0
    Kekse:
    88
    Erstellt: 19.04.06   #2
    Klar geht das. Du spielst dann nur tiefer. Normalerweise sind die Akkorde alle schon richtig angegeben. Beispiel: Du hast den Kapo im zweiten Bund und da steht, dass du G spielen sollst so greifst du G aber es klingt wie A. Das ist aber schon einbezogen und die Melodie stimmt.
    Probleme gibts nur, wenn du zu CD oder mit anderen zusammen spielst.
     
  3. mailo

    mailo Threadersteller Registrierter Benutzer

    Im Board seit:
    01.08.04
    Zuletzt hier:
    5.08.15
    Beiträge:
    38
    Zustimmungen:
    0
    Kekse:
    10
    Erstellt: 19.04.06   #3
    kk thx erstmal.

    naja aber ich hab da son TAB von "Oasis - Wonderwall" und da steht extra Capo im 2ten(?) bund ...
    wenn ich dann nur die akkorde spiel, klingts nicht richtig.

    Welchen Akkord muss ich dann denn immer spielen...

    bsp: statt 2Bund Capo "G" ---
     
  4. !nsane

    !nsane Gesperrter Benutzer

    Im Board seit:
    10.09.03
    Zuletzt hier:
    3.04.12
    Beiträge:
    233
    Ort:
    Heilbronn
    Zustimmungen:
    0
    Kekse:
    79
    Erstellt: 19.04.06   #4
    das is schon möglich, aber dann is ein bisschen stretching angesagt, die intro akkorde wären das beispielsweise so:

    Code:
    --5----------------|--5----------------|--5----------------|
    --5----------------|--5----------------|--5----------------|
    --2----------------|--2----------------|--4----------------|
    --4----------------|--2----------------|--2----------------|
    --4----------------|--4----------------|-------------------|
    --2----------------|--5----------------|-------------------|
    
    
      W                  
    --5----------------||
    --5----------------||
    --4----------------||
    --4----------------||
    --2----------------||
    -------------------||
     
  5. mailo

    mailo Threadersteller Registrierter Benutzer

    Im Board seit:
    01.08.04
    Zuletzt hier:
    5.08.15
    Beiträge:
    38
    Zustimmungen:
    0
    Kekse:
    10
    Erstellt: 19.04.06   #5
    danke, und wie hast du das jetzt hergeleitet?
     
  6. !nsane

    !nsane Gesperrter Benutzer

    Im Board seit:
    10.09.03
    Zuletzt hier:
    3.04.12
    Beiträge:
    233
    Ort:
    Heilbronn
    Zustimmungen:
    0
    Kekse:
    79
    Erstellt: 19.04.06   #6
    ich habe die eigentlichen akkorde einfach um 2 halbtöne erhöht ;) dein zeigefinger macht dann quasi das, was normalerweise der capo macht, also alle saiten im 2. bund runterdrücken. muss man eben ein bisschen gucken dass man das mit den restlichen fingern hinkriegt, aber sollte schon gehn, mit etwas übung :)
     
  7. mailo

    mailo Threadersteller Registrierter Benutzer

    Im Board seit:
    01.08.04
    Zuletzt hier:
    5.08.15
    Beiträge:
    38
    Zustimmungen:
    0
    Kekse:
    10
    Erstellt: 19.04.06   #7
    omg so viele finger hab ich garnicht ^^

    besonder wenn so was wie Em7 kommt oder so ^^
     
  8. !nsane

    !nsane Gesperrter Benutzer

    Im Board seit:
    10.09.03
    Zuletzt hier:
    3.04.12
    Beiträge:
    233
    Ort:
    Heilbronn
    Zustimmungen:
    0
    Kekse:
    79
    Erstellt: 19.04.06   #8
    bei dem ersten kannst dus beispielsweise so machen, dass der zeigefinger barre am 2. bund macht, mittel- und ringfinger greifen A und D saite im 4. bund und der kleine finger die beiden höchsten saiten gleichzeitig mit einem kleinen barre im 5. bund

    alternativ könnte man auch mal schauen ob jemand weiss wie man diese akkorde in anderen, praktischeren lagen spielen kann.
     
  9. mailo

    mailo Threadersteller Registrierter Benutzer

    Im Board seit:
    01.08.04
    Zuletzt hier:
    5.08.15
    Beiträge:
    38
    Zustimmungen:
    0
    Kekse:
    10
    Erstellt: 19.04.06   #9
    Capo 2. fret

    Chords used:

    EADGBe
    Em7 (022033)
    G (320033)
    Dsus4 (xx0233)
    A7sus4 (x02033)
    Cadd9 (x32033)
    Dsus4/F# (2x0233) [note:some people think this is a G/F# (200033)]

    Here's the rythym of how the chord in the verses should be played:

    Em7 G Dsus4 A7sus4
    e--3--3--3--3-3-3-3-3--3--3-3--3-3-3--3--3-3-3--3--3-3-3-3-3-3-3----
    B--3--3--3--3-3-3-3-3--3--3-3--3-3-3--3--3-3-3--3--3-3-3-3-3-3-3----
    G--0--0--0--0-0-0-0-0--0--0-0--0-2-2--2--2-0-0--0--0-0-0-0-0-0-0----
    D--2--2--2--2-2-2-0-0--0--0-0--0-0-0--0--0-0-2--2--0-2-2-0-2-2-0----
    A--2--2--2--2-2-2-2-2--2--2-2----------------0--0----0-0-0-0-0------
    E--0--0--0--0-0-0-3-3--3--3-3---------------------------------------





    das is der tab bzw. die verwendeten akkorde
     
  10. !nsane

    !nsane Gesperrter Benutzer

    Im Board seit:
    10.09.03
    Zuletzt hier:
    3.04.12
    Beiträge:
    233
    Ort:
    Heilbronn
    Zustimmungen:
    0
    Kekse:
    79
    Erstellt: 19.04.06   #10
    genau, und jetzt musst du alle töne um 2 halbtöne, sprich 2 bünde erhöhen, um es auf ner gitarre ohne capo zu spielen

    edit: ich hab mal rumprobiert, folgende akkorde sollten ungefähr hinkommen fürs intro
    Code:
    E||--0----------------|--0----------------|--0----------------|
    B||--2----------------|--2----------------|--0----------------|
    G||--2----------------|--2----------------|--2----------------|
    D||--4----------------|--2----------------|--2----------------|
    A||--0----------------|--0----------------|--0----------------|
    E||-------------------|-------------------|--0----------------|
    
    
    --2----------------|-----------||
    --0----------------|-----------||
    --2----------------|-----------||
    --2----------------|-----------||
    --2----------------|-----------||
    -------------------|-----------||
     
  11. mailo

    mailo Threadersteller Registrierter Benutzer

    Im Board seit:
    01.08.04
    Zuletzt hier:
    5.08.15
    Beiträge:
    38
    Zustimmungen:
    0
    Kekse:
    10
    Erstellt: 19.04.06   #11
    gut danke erstmal.. ich schau mich auch mal bei google um
     
Die Seite wird geladen...

mapping