"rhcp- snow" wie spielt ihr das?

von unr34l, 20.12.06.

  1. unr34l

    unr34l Registrierter Benutzer

    Im Board seit:
    02.08.06
    Zuletzt hier:
    3.07.13
    Beiträge:
    286
    Zustimmungen:
    0
    Kekse:
    15
    Erstellt: 20.12.06   #1
    hi,

    ich verusche gerade (sehr)langsam snow zu üben und wollte euch mal fragen wie ihr es spielt.... weil ich benutze für den anfang nur 2 finger (zeige- und ringfinger) ab und zu auch den kleinen finger, und dann lass ich jeden ton sofort wieder los, also ich lass ihn nicht ausklingen

    wenns geht könntet ihr mir ja mit zahlen (1.zeige 2. mittel 3. ring und 4. kleiner finger) posten...

    wäre net und danke schonmal die was gescheits machen;)

    mfg unr34l
     
  2. Disgracer

    Disgracer A-Gitarren-Mod Moderator

    Im Board seit:
    18.10.06
    Zuletzt hier:
    10.12.16
    Beiträge:
    4.971
    Ort:
    Dortmund
    Zustimmungen:
    1.248
    Kekse:
    47.175
    Erstellt: 20.12.06   #2
    ^^ linke oder rechte hand??

    weil das macht grad irgendwie überhaupt keinen sinn..

    und nach welchen tabs spielst du das?
     
  3. unr34l

    unr34l Threadersteller Registrierter Benutzer

    Im Board seit:
    02.08.06
    Zuletzt hier:
    3.07.13
    Beiträge:
    286
    Zustimmungen:
    0
    Kekse:
    15
    Erstellt: 20.12.06   #3
  4. unr34l

    unr34l Threadersteller Registrierter Benutzer

    Im Board seit:
    02.08.06
    Zuletzt hier:
    3.07.13
    Beiträge:
    286
    Zustimmungen:
    0
    Kekse:
    15
    Erstellt: 20.12.06   #4
  5. Disgracer

    Disgracer A-Gitarren-Mod Moderator

    Im Board seit:
    18.10.06
    Zuletzt hier:
    10.12.16
    Beiträge:
    4.971
    Ort:
    Dortmund
    Zustimmungen:
    1.248
    Kekse:
    47.175
    Erstellt: 20.12.06   #5
    hmm powertabs check ich net ganz ;-)

    also ich hab mir da sowas zusammengebastelt: (wobei der teil mit dem hammer on und pull off natürlich extremst schnell ist)

    fingersätze sind logisch. rechte hand spiel ich auch ganz logisch mit daumen, zeige- und mittelfinger

    ------------------------------------------
    --------1-------1---h3-p1-----1--------
    -----2------2---------------2-----------
    --2--------------------------------------
    ------------------------------------------
    ------------------------------------------

    ------------------------------------------
    --------1-------1---h3-p1-----1--------
    -----2------2---------------2-----------
    --3--------------------------------------
    ------------------------------------------
    ------------------------------------------

    ------------------------------------------
    ------------------------------------------
    ----------0------0---h2---p0------0---- <-- mittelfinger
    ------2------2-------------------2------ <-- zeigefinger
    ---3------------------------------------- <-- ringfinger
    ------------------------------------------

    ------------------------------------------
    --------3-------3---h5-p3-----3--------
    -----4------4---------------4-----------
    --5--------------------------------------
    ------------------------------------------
    ------------------------------------------
     
  6. unr34l

    unr34l Threadersteller Registrierter Benutzer

    Im Board seit:
    02.08.06
    Zuletzt hier:
    3.07.13
    Beiträge:
    286
    Zustimmungen:
    0
    Kekse:
    15
    Erstellt: 20.12.06   #6
    meine tabs (die ich hab) sind da aber n bissle anders....
     
  7. Kurac

    Kurac Registrierter Benutzer

    Im Board seit:
    05.07.04
    Zuletzt hier:
    5.06.11
    Beiträge:
    3.105
    Zustimmungen:
    3
    Kekse:
    6.408
    Erstellt: 20.12.06   #7
    Also ich hab mal ein kleines Video mit meinem bescheidenem Handy aufgenommen, einmal schnell und mal langsam zur Verdeutlichung. Quali, solala... aber ich hoffe es nützt vlt. was.


    www.asksix.de/uploads/Videos/snow.wmv

    /e/ Nene.. also die Tabs da oben entsprechem mit Sicherheit nicht dem Original.

    /e²/ Eher so:
    PHP:
      r  k   z    k   z   r   z   r   z     
    ------------------------------------------
    ------------------------------------------
    --------
    4-------4---h6-p4-------4--------
    -----
    6-------6---------------6-------------
    --
    6---------------------------------------
    ------------------------------------------

    ------------------------------------------
    ------------------------------------------
    --------
    4-------4---h6-p4-------4--------
    -----
    6-------6---------------6-------------
    --
    7---------------------------------------
    ------------------------------------------

    ------------------------------------------
    ------------------------------------------
    ------------------------------------------
    --------
    4-------4---h6-p4-------4--------
    -----
    6-------6---------------6-------------
    --
    7---------------------------------------


    ------------------------------------------
    ------------------------------------------
    ------------------------------------------
    --------
    6-------6---h8-p6-------6--------
    -----
    8-------8---------------8-------------
    --
    9---------------------------------------
    -----------------------------------------
    So mach' ich das. (;

    mfg
     
  8. Stoney

    Stoney Registrierter Benutzer

    Im Board seit:
    17.11.06
    Zuletzt hier:
    3.12.15
    Beiträge:
    570
    Ort:
    .at
    Zustimmungen:
    37
    Kekse:
    3.746
    Erstellt: 21.12.06   #8
    also ich übe das auch grad (funktioniert schon ganz sauber mit tempo 60^^) und zusammen mit meinem musik-lehrer hab ich eine recht gute technik ausgefeilt!

    die tabs hab ich aus dem originalen TabBuch stadium arcadium!
    ähnlich den tabs von kurc
    nur mit einem pick-thiller ...

    naja hier mein code:
    Code:
    finger: 1 zeige, 2 mittel und 3 ring ...
    
      2  3  1   3  1    1h2p1    2  1     
    ------------------------------------------
    ------------------------------------------
    --------4-------4---4h6p4-------4--------
    -----6-------6---------------6-------------
    --6---------------------------------------
    ------------------------------------------ 
    let ring -----------I        let ring------I
    
    ich hoffe das ist ein bisschen nachvollziehbar ...

    lg stoney
     
  9. Kurac

    Kurac Registrierter Benutzer

    Im Board seit:
    05.07.04
    Zuletzt hier:
    5.06.11
    Beiträge:
    3.105
    Zustimmungen:
    3
    Kekse:
    6.408
    Erstellt: 21.12.06   #9
    Der Tab ist ja genau so wie ich das Spiele, nur das ich nen anderen Fingersatz hab'. :-)
    Aber jo, jeder soll halt so machen wie er am besten kann, was sich am besten anfühlt. ;)

    mfg
     
  10. Stoney

    Stoney Registrierter Benutzer

    Im Board seit:
    17.11.06
    Zuletzt hier:
    3.12.15
    Beiträge:
    570
    Ort:
    .at
    Zustimmungen:
    37
    Kekse:
    3.746
    Erstellt: 21.12.06   #10
    achja - mit pick-thiller meinte ich eigentlich eine prall-thriller ... also das 4h6p4 ;)

    sorry ... bin noch ein wenig müde heute *g*

    ---

    wie spielt es eigentlich john fru. selbst? hab leider noch nie das snow-video gesehen ... mal auf youtube suchen ... vllt ist ja da etwas erkenntlich ...

    edit: und mit meiner rechtschreibung hauts auch noch nicht hin ....
     
  11. Kurac

    Kurac Registrierter Benutzer

    Im Board seit:
    05.07.04
    Zuletzt hier:
    5.06.11
    Beiträge:
    3.105
    Zustimmungen:
    3
    Kekse:
    6.408
    Erstellt: 21.12.06   #11
    Da hab ich auch schonmal nach live Videos geschaut. Aber ich glaub wir liegen beide ziemlich richtig mit den Tabs. Aber den Fingersatz, weiß nicht. Ich kanns so halt am besten.

    mfg (;
     
  12. Disgracer

    Disgracer A-Gitarren-Mod Moderator

    Im Board seit:
    18.10.06
    Zuletzt hier:
    10.12.16
    Beiträge:
    4.971
    Ort:
    Dortmund
    Zustimmungen:
    1.248
    Kekse:
    47.175
    Erstellt: 21.12.06   #12
    @Kurc's tabs: das ist genau das gleiche.. (ich hätte vllt dazuschreiben sollen, dass man bei meiner version die gitarre ne halbton runterstimmen muss. dann sind das exact die gleichen töne)

    und bei deiner version hast du meiner meinung nach 2 große nachteile:
    erstens ist der sprung mit dem kleinen finger in den 9. bund ziemlich schwierig.
    und zweitens (und das hat mich wirklich extrem gestört) kann man bei dir die töne nicht durchklingen lassen, dadurch, dass du zum trillern alle finger bis auf den zeigefinger wegnimmst.
    (wenn mich jetzt jemand korrigieren will: ja das geht auch, wenn man bei Kurc's tabs mit dem ringfinger trillert, aber wer zum teufel kann das in dem tempo..?)

    jedenfalls find ich, dass es mit durchklingenden basstönen deutlich schöner klingt. und deutlich einfacher find ich meins auch ;-)

    aber muss jeder für sich wissen..

    der john spielt's live übrigens so wie du. allerdings steckt da natürlich auch das entsprechende equipment/effekte drin, damit es nicht abgehackt klingt (bzw natürlich auch die entsprechende spieltechnik/geschwindigkeit beim wechseln)
    video: YouTube - Red Hot Chili Peppers - Snow ((Hey Oh)) LIVE

    (und um es einfach mal zu erwähnen: wenn john das so macht ist es zunächst einmal eine möglichkeit. das heißt nicht, dass man es nicht anders spielen darf..)
     
  13. Kurac

    Kurac Registrierter Benutzer

    Im Board seit:
    05.07.04
    Zuletzt hier:
    5.06.11
    Beiträge:
    3.105
    Zustimmungen:
    3
    Kekse:
    6.408
    Erstellt: 21.12.06   #13
    Ja die gleichen Töne, aber dennoch hört es sich anders an. Dünnere Saiten klingen halt anders als dickere, und genau das macht den Sound aus.

    Ich find das klappt sehr gut und hört sich an wie das Original. Ich hab keine Probs mit dem wechsel und ich John erst recht nicht. ;)

    S.o.

    Genau das ist der Punkt, aber wenn man so wie er klingen will muss man es auch genau so spielen und nicht anders.

    Naja.. Effekte und Equipment verbessern meines Wissenstandes nicht die Bespielbarkeit eines Liedes. Es klingt wie man es spielt. Wenn ich mir Equip/Effekte für 5.ooo Taler zulege, kann ich mit Sicherheit nicht auf einmal besser spielen.

    S.o.

    mfg :-)
     
  14. Stoney

    Stoney Registrierter Benutzer

    Im Board seit:
    17.11.06
    Zuletzt hier:
    3.12.15
    Beiträge:
    570
    Ort:
    .at
    Zustimmungen:
    37
    Kekse:
    3.746
    Erstellt: 21.12.06   #14
    also ich muss auch nochmal meinen senf dazu geben:

    bezüglich dem letzten riff:

    im buch ist da ein Slide von 7/9 angegeben und den hört man auch ... funzt mit meiner technik supi!

    ---------

    bezüglich dem "klingen lassen" beim prall-thriller:

    also wenn du den song ganz genau anhörst, hört man, dass meine beschreibung "Let ring" stimmt - und eben beim 4h6p4 nicht ist - also kann man ruhig alle finger weggehen und den thrill spielen - wenn man die studioversion anhört hört man das, dass beim thrill nix mehr klingt!
     
  15. Disgracer

    Disgracer A-Gitarren-Mod Moderator

    Im Board seit:
    18.10.06
    Zuletzt hier:
    10.12.16
    Beiträge:
    4.971
    Ort:
    Dortmund
    Zustimmungen:
    1.248
    Kekse:
    47.175
    Erstellt: 21.12.06   #15
    den slide kannst du bei "meiner version" auch genauso mitspielen..

    und wie ich oben schon sagte: nur weil Mr John F das so spielt heißt es nicht, dass man es nicht auch anders spielen kann.

    du wirst mir zugestehen müssen, dass ich es schöner finden kann, wenn alle töne klingen.
    ich sag ja nicht dass ihr das so spielen sollt wie ich. es ist nur eine andere möglichkeit die ich bei der gelegenheit hier verbreiten wollte, weil ich sie zum einen einfacher, zum andern schöner find.

    wenn jemand das so spielen will wie John, dann mag er das tun. für mich zählt mehr das ergebnis als die authenzitität.
    solange es mir gefällt und das wiederspiegelt, was ich in der musik erkennen kann ist es mir völlig schnuppe ob der schöpfer des stückes das anders gespielt hat.

    es ist also eine frage der motivation hinter dem gitarrespielen:
    der eine will alles originalgetreu spielen. am besten mit dem original setup etc
    der andere nimmt die idee des stückes auf und entwickelt sie weiter und macht was eigenes daraus.

    ich zähl mich definitiv zur zweiten gruppe. ich hör auch lieber coverbands die eine eigene version der stücke spielen, als bands die die stücke 1zu1 kopieren
     
  16. Kurac

    Kurac Registrierter Benutzer

    Im Board seit:
    05.07.04
    Zuletzt hier:
    5.06.11
    Beiträge:
    3.105
    Zustimmungen:
    3
    Kekse:
    6.408
    Erstellt: 21.12.06   #16
    Jo, eben. Jeder wie er will.

    mfg
     
  17. k.zwo

    k.zwo Registrierter Benutzer

    Im Board seit:
    11.04.06
    Zuletzt hier:
    12.01.13
    Beiträge:
    70
    Ort:
    Aachen
    Zustimmungen:
    0
    Kekse:
    10
    Erstellt: 21.12.06   #17
    Welcher Slide? Im letzten Riff ist nicht mal ne 7:
    ------------------------------------------
    ------------------------------------------
    ------------------------------------------
    --------
    6-------6---h8-p6-------6--------
    -----
    8-------8---------------8-------------
    --
    9---------------------------------------
    -----------------------------------------

    Und den Riff davor kannst du nicht durch nen Slide mit diesem Verbinden [also 7/9 so wie das darstellst], da man ja das H auf der E Saite spielt und zum Fis auf der A Saite im letzten Part muss.
    Ich spiele es auch so wie Kurc.
     
  18. Disgracer

    Disgracer A-Gitarren-Mod Moderator

    Im Board seit:
    18.10.06
    Zuletzt hier:
    10.12.16
    Beiträge:
    4.971
    Ort:
    Dortmund
    Zustimmungen:
    1.248
    Kekse:
    47.175
    Erstellt: 21.12.06   #18
    ------------------------------------------
    ------------------------------------------
    ------------------------------------------
    ----------
    6-------6---h8-p6-------6----
    -------
    8-------8---------------8---------
    -7-s
    9------------------------------------
    ------------------------------------------

    ^^ na so

    wieso soll man da nicht sliden können..?

    du hörst doch im riff davor auf dem Fis auf der G saite auf (4. bund, zeigefinger)
    dann nimmst du den kleinen finger und packst ihn auf das E auf der A Saite (7. Bund) und rutscht damit auf das Fis im 9. Bund

    und den slide hört man eigentlich, wenn man sich das stück mal anhört..

     
  19. Stoney

    Stoney Registrierter Benutzer

    Im Board seit:
    17.11.06
    Zuletzt hier:
    3.12.15
    Beiträge:
    570
    Ort:
    .at
    Zustimmungen:
    37
    Kekse:
    3.746
    Erstellt: 21.12.06   #19
    stimmt genau! ... aber bei mienr spieltechnick mach ich dne slide mit dem ringfinger (3) ^^

    _______

    und bezüglich dem Klingelassen:

    jeder wie er will - klar klingst schöner, wenn alles weiterklingt, aber ich tut mir anders leichter!
    (naja - wahrscheinlich könnt ihr alle das schon mit tempo100 spielen .. ich bin ja noch bei 60, werds aber langsam steigern und bis 90 schaff ichs sicher!)
     
  20. Disgracer

    Disgracer A-Gitarren-Mod Moderator

    Im Board seit:
    18.10.06
    Zuletzt hier:
    10.12.16
    Beiträge:
    4.971
    Ort:
    Dortmund
    Zustimmungen:
    1.248
    Kekse:
    47.175
    Erstellt: 21.12.06   #20
    und wieso das? magst du den kleinen finger nicht, oder gibt es irgendnen besonderen grund das mit dem ringfinger zu spielen? verkompliziert das ganze eigentlich nur..
     
Die Seite wird geladen...

mapping