Song/Lick aus der neuen Levis Werbung

von MaDmEggO, 22.09.05.

  1. MaDmEggO

    MaDmEggO Registrierter Benutzer

    Im Board seit:
    24.11.04
    Zuletzt hier:
    4.08.14
    Beiträge:
    461
    Ort:
    Diez
    Zustimmungen:
    0
    Kekse:
    107
    Erstellt: 22.09.05   #1
    Kennt die werbung zufälligerweise jemand von euch? da spielt nen kerl irgend nen song oder nen lick der sich richtig schnieke anhört...

    das problem is dass ich nich weiß wie der song heißt (falls es einer is)

    kann mir wer sagen was das für einer is und vll sogar die tabs dazu geben?


    danke mal im vorraus =)
     
  2. Ataca del Rasha

    Ataca del Rasha Helpful & Friendly User HFU

    Im Board seit:
    20.09.04
    Zuletzt hier:
    6.12.16
    Beiträge:
    2.030
    Zustimmungen:
    73
    Kekse:
    3.513
    Erstellt: 22.09.05   #2
    meinst du wo er im eiswagen steht?

    hab zwar leider keine ahnung was er spielt aber find das hört sich total eklig an, vorallem der effekt (wenn es denn einer ist) is echt ma schrecklich.
     
  3. MarcusF

    MarcusF Registrierter Benutzer

    Im Board seit:
    24.01.05
    Zuletzt hier:
    14.02.13
    Beiträge:
    118
    Zustimmungen:
    0
    Kekse:
    128
    Erstellt: 22.09.05   #3
    Na so 100% kann ich Dir den Titel nicht nennen, aber Anthrax (die Band nicht das Virus) haben damals diesen Song gespielt.

    Titel war glaub ich "Friggin in the riggin".

    Wurde glaub ich aber von vielen anderen Bands noch gespielt und ist scheinbar so ne art Volkslied..
     
  4. clemens

    clemens Registrierter Benutzer

    Im Board seit:
    01.02.04
    Zuletzt hier:
    7.10.08
    Beiträge:
    2.384
    Ort:
    Austria
    Zustimmungen:
    9
    Kekse:
    668
    Erstellt: 22.09.05   #4
    Das ist doch irgendein Kinderlied oder sowas. Warum willst du das denn spielen, ist ja noch dazu im Spot grottenschlecht gespielt? Dir hat wohl das Mädel im Bikini ein wenig die Wahrnehmung verdreht :p
     
  5. Killamangiro*

    Killamangiro* Registrierter Benutzer

    Im Board seit:
    19.04.05
    Zuletzt hier:
    27.01.10
    Beiträge:
    2.029
    Zustimmungen:
    5
    Kekse:
    888
    Erstellt: 22.09.05   #5
    der song ist cool, der typ ist cool, aber der grund warum ich schreibe: die gitarre ist verdammt cool! hab schon des öfteren versucht an solche gitarren ranzukommen über ebay, manche sind einfach der wahnsinn. steht aber nicht jeder drauf. achja und die frauen sind auch toll ;)
     
  6. Bongat1000

    Bongat1000 Registrierter Benutzer

    Im Board seit:
    24.07.05
    Zuletzt hier:
    10.05.09
    Beiträge:
    244
    Ort:
    Heidelberg
    Zustimmungen:
    0
    Kekse:
    75
    Erstellt: 22.09.05   #6
    wollte gerade hier nach genau die gleiche frage stellen wie #1... suche ebenfalls tabs dafür...

    das lied is übrigens auch schon in ner zahnbürsten werbung verwendet worden...


    mit blendy und seiner kinderbürste macht das putzen spaaahaaß, mit blendy und seiner kinderbürste macht das putzen spaaaß...

    kann sich noch jemand erinnern? :D:great:
     
  7. MaDmEggO

    MaDmEggO Threadersteller Registrierter Benutzer

    Im Board seit:
    24.11.04
    Zuletzt hier:
    4.08.14
    Beiträge:
    461
    Ort:
    Diez
    Zustimmungen:
    0
    Kekse:
    107
    Erstellt: 23.09.05   #7
    ich weiß nich was ihr alle habt ich find der lick hört sich geil an... und gerade dieser sound hats mir irgendwie angetan:er_what:
     
  8. Fliege

    Fliege Helpful & Friendly User HFU

    Im Board seit:
    09.01.05
    Zuletzt hier:
    11.06.12
    Beiträge:
    987
    Ort:
    Berlin
    Zustimmungen:
    0
    Kekse:
    1.057
    Erstellt: 23.09.05   #8
    HI

    Den Sound find ich kacke, aber die Melodie interessiert mich auch, ich weiß auch genau das ich das Lied kenne, vermutlich komm ich nur durch den Sound net drauf, ich grübel schon seit Tagen, also wär nett wenn jemand genau das raussuchen könnte, bin auch herbe interessiert daran...
     
  9. Deep_Impact

    Deep_Impact Registrierter Benutzer

    Im Board seit:
    19.09.05
    Zuletzt hier:
    8.02.12
    Beiträge:
    227
    Zustimmungen:
    0
    Kekse:
    196
    Erstellt: 23.09.05   #9
    Sag kennt hier keiner amerikanische Eiswagen ??? Die spielen immer das selbe.
    Das Lied ist : "Mary had a little lamb" !
     
  10. MarcusF

    MarcusF Registrierter Benutzer

    Im Board seit:
    24.01.05
    Zuletzt hier:
    14.02.13
    Beiträge:
    118
    Zustimmungen:
    0
    Kekse:
    128
    Erstellt: 23.09.05   #10
    FALSCH! Das ist nicht Mary had a little lamb..!

    Wie schon geschrieben es handelt sich um "friggin in the riggin". Im original von den Sex Pistols , mir bekannt war aber eher die Anthrax Version.
     
  11. Bongat1000

    Bongat1000 Registrierter Benutzer

    Im Board seit:
    24.07.05
    Zuletzt hier:
    10.05.09
    Beiträge:
    244
    Ort:
    Heidelberg
    Zustimmungen:
    0
    Kekse:
    75
    Erstellt: 23.09.05   #11
    haste da denn dann evtl auch tabs dazu?
     
  12. AgentOrange

    AgentOrange Mod Emeritus Ex-Moderator

    Im Board seit:
    16.04.04
    Zuletzt hier:
    7.12.16
    Beiträge:
    9.770
    Ort:
    Heidelberg
    Zustimmungen:
    354
    Kekse:
    7.549
    Erstellt: 24.09.05   #12
    Google hat nix ausgespuckt, nur die chords, also hat sich paul ma hingesetzt und rausgehört, bin da aber net so gut drin, also weiß nich obs wirklich richtig is, sounded aber so.


    Code:
    
    E----------------------------------------------------
    H----------------------------------------------------
    G------5-7-9-5-5------5-7-9-5-5-----5-7-9-10-9-7-5----------5-5-
    D--5-9------------5-9------------5-9-----------------9-5-7-9----
    A----------------------------------------------------
    E----------------------------------------------------
    
    


    Edit: so tönt des dann, ohne jegliche Verzierung. Mit gescheiten Bendings und anderen phrasierungen könnte man da aber was geiles draus machen :great:

    http://rapidshare.de/files/5453672/friggin.wma.html



    Edit²: Probierts mal auch mit der version, evtl. is die richtiger, is halt laut string dann die anthrax-version :D :


    Code:
    
    E----------------------------------------------------
    H----------------------------------------------------
    G------5-7-9-5-5------5-7-9-5-5------5-7-9-10-9-7-5-----------5-5-
    D-5-10-----------5-10-----------5-10-----------------10-5-7-10----
    A----------------------------------------------------
    E----------------------------------------------------
    
    
     
  13. roastbeef

    roastbeef Registrierter Benutzer

    Im Board seit:
    30.11.03
    Zuletzt hier:
    25.07.16
    Beiträge:
    3.424
    Ort:
    Graz
    Zustimmungen:
    72
    Kekse:
    4.088
    Erstellt: 24.09.05   #13
    sehe schon das agent orange es gespostet hat... aber an threadersteller...
    kannst das nicht raushören... das sind nur 7 noten die gespielt werden!

    und ja...es is ne art volkslied, ich weiß auch wies weitergeht. irgendwie irisch hört sich das an!
     
  14. AgentOrange

    AgentOrange Mod Emeritus Ex-Moderator

    Im Board seit:
    16.04.04
    Zuletzt hier:
    7.12.16
    Beiträge:
    9.770
    Ort:
    Heidelberg
    Zustimmungen:
    354
    Kekse:
    7.549
    Erstellt: 24.09.05   #14
    Also, die zweite version ist die richtige. Die herren von den Sex pistols konnten einfach nich singen :D Aber stimmt sogar von den tönen her :great:
     
  15. MaDmEggO

    MaDmEggO Threadersteller Registrierter Benutzer

    Im Board seit:
    24.11.04
    Zuletzt hier:
    4.08.14
    Beiträge:
    461
    Ort:
    Diez
    Zustimmungen:
    0
    Kekse:
    107
    Erstellt: 25.09.05   #15
    Nein der threadersteller kanns nich raushören... was das angeht bin ich ganz einfach ne niete! ich habs auch einfach noch nich drauf was selbst zu komponieren oder was zu improvisieren dafür hab ich ganz einfach zu wenig erfahrung. außerdem nehm ich keinen utnerricht und bring mir so ziemlich alles selbst bei!
     
  16. Oliver_

    Oliver_ Registrierter Benutzer

    Im Board seit:
    15.04.05
    Zuletzt hier:
    23.11.16
    Beiträge:
    2.755
    Ort:
    Frankfurt am Main
    Zustimmungen:
    72
    Kekse:
    2.836
    Erstellt: 25.09.05   #16
    Pop goes the weasel? :confused:
     
  17. LennyNero

    LennyNero HCA Gitarre: Racks & MIDI Ex-Moderator HCA

    Im Board seit:
    02.12.03
    Zuletzt hier:
    7.12.16
    Beiträge:
    17.525
    Ort:
    Wetzlar
    Zustimmungen:
    288
    Kekse:
    35.627
    Erstellt: 25.09.05   #17
    Mein Vorschlag:

    Yankee Doodle:

    http://www.allguitartabs.com/index.php/tab/21753/


    Code:
    Yan-kee Doo-dle went to tow-n, Ri-ding on his po-ny 
    e|-0---0---2---4---0----4--2--------0--0----2--4---0----------|
    B|-----------------------------0----------------------4-------|
    G|------------------------------------------------------------|
    D|------------------------------------------------------------|
    A|------------------------------------------------------------|
    E|------------------------------------------------------------|
    
    He Stuck A Fea-ther In His Hat And Called It Maca-ro-ni
    e|-0--0-----2-4---5----4--2---0----------------------0--0-----|
    B|--------------------------------4---0------2--4-------------|
    G|------------------------------------------------------------|
    D|------------------------------------------------------------|
    A|------------------------------------------------------------|
    E|------------------------------------------------------------|
    
    (Keep?)
    Yan-kee Doo-dle Pick It Up, Yan-kee Doo-dle Dan-dy
    e|-------------------------0----------------------------------|
    B|-2---4---2---0---2----4--------0---2---0-----------0--------|
    G|-------------------------------------------2---1------------|
    D|------------------------------------------------------------|
    A|------------------------------------------------------------|
    E|------------------------------------------------------------|
    
    (Mind The Music And Your Step?)
    Yan-Kee Doo-dle Keep It Up, And Let The Girls Be Han-dy 
    e|--------------------------------------------------4--0---0--|
    B|-0---2---0-------0----2--4------0---2---0---2---------------|
    G|-------------2----------------------------------------------|
    D|------------------------------------------------------------|
    A|------------------------------------------------------------|
    E|------------------------------------------------------------|
    
    This One Is A Little Different, 
    I Substituted Some Of The Open Strings For The 5th Fret Sort Of Deal... 
    (And No Words, Easier To Read)
    
    e|-0-0-2-4-0-4-2-----0-0-2-4-0---|
    B|---------------0-------------4-|
    G|-------------------------------|
    D|-------------------------------|
    A|-------------------------------|
    E|-------------------------------|
    
    e|-0-0-2-4-5-4-2-0---------0-0---|
    B|-----------------4-0-2-4-------|
    G|-------------------------------|
    D|-------------------------------|
    A|-------------------------------|
    E|-------------------------------|
    
    e|-------------------------------|
    B|-2-4-2-0-2-4-5---0-2-----0-----|
    G|---------------------2-1-------|
    D|-------------------------------|
    A|-------------------------------|
    E|-------------------------------|
    
    e|-------------------------4-0-0-|
    B|-0-2-0---0-2-4---0-2-0-2-------|
    G|-------2-----------------------|
    D|-------------------------------|
    A|-------------------------------|
    E|-------------------------------|
    
     
  18. Arvir

    Arvir Registrierter Benutzer

    Im Board seit:
    02.10.04
    Zuletzt hier:
    11.05.14
    Beiträge:
    1.161
    Zustimmungen:
    4
    Kekse:
    3.583
    Erstellt: 25.09.05   #18
    Ich dachte auch die ganze Zeit an Yankee Doodle, allerdings wird das in der Werbung nicht so tief gespielt.
     
  19. LennyNero

    LennyNero HCA Gitarre: Racks & MIDI Ex-Moderator HCA

    Im Board seit:
    02.12.03
    Zuletzt hier:
    7.12.16
    Beiträge:
    17.525
    Ort:
    Wetzlar
    Zustimmungen:
    288
    Kekse:
    35.627
    Erstellt: 25.09.05   #19

    Transponieren sollte ja kein Problem sein.
     
  20. Cybob

    Cybob Registrierter Benutzer

    Im Board seit:
    07.04.05
    Zuletzt hier:
    27.06.11
    Beiträge:
    23
    Zustimmungen:
    0
    Kekse:
    31
    Erstellt: 25.09.05   #20
    Hi
    Also ich muss zugeben das ich das lied auch gern mal mit dem Effekt spielen würd :o Weis einer wie der heist oder wie ich den auf meinem 505 II hinbekomme :(:(
     
Die Seite wird geladen...

mapping