Wah Wah zum kennenlernen und üben

von MartymcFly, 18.06.07.

  1. MartymcFly

    MartymcFly Registrierter Benutzer

    Im Board seit:
    16.01.07
    Zuletzt hier:
    29.02.08
    Beiträge:
    110
    Zustimmungen:
    0
    Kekse:
    50
    Erstellt: 18.06.07   #1
    Hallo miteinander,

    könnte mir jemand ein paar einfache Riffs empfehlen, mit denen man das Spielen mit einem Wah Wah anfängergerecht kennenlernen und etwas erlernen kann? Vielleicht auch leichte Stellen aus einem bekannten Song, die mit Wah Wah gespielt werden...(gerne auch ein Reggae-Lied). Ich habe nämlich an meinem neuen Multieffektgerät ein Expressionpedal, mit dem ich bislang noch nicht allzuviel gemacht habe...Es ist zwar kein richtiges Wah Wah-Pedal, aber um die grundsätzlichen Spieltechniken kennerzulernen, reicht es allmal..

    Vielen Dank im Voraus!
     
  2. Brigde

    Brigde Registrierter Benutzer

    Im Board seit:
    12.04.06
    Beiträge:
    649
    Zustimmungen:
    4
    Kekse:
    814
    Erstellt: 18.06.07   #2
  3. Maggisus

    Maggisus Registrierter Benutzer

    Im Board seit:
    30.08.06
    Zuletzt hier:
    4.11.16
    Beiträge:
    764
    Zustimmungen:
    0
    Kekse:
    82
    Erstellt: 18.06.07   #3

    Anhänge:

  4. NeckX

    NeckX Registrierter Benutzer

    Im Board seit:
    16.06.07
    Zuletzt hier:
    13.12.13
    Beiträge:
    26
    Ort:
    Marburg
    Zustimmungen:
    0
    Kekse:
    31
    Erstellt: 20.06.07   #4
    den Anfang von Black Label society - Fire it up ist fett und relativ leicht zu spielen finde ich
     
  5. thrillisgone

    thrillisgone Registrierter Benutzer

    Im Board seit:
    17.06.07
    Zuletzt hier:
    24.06.07
    Beiträge:
    10
    Zustimmungen:
    0
    Kekse:
    10
    Erstellt: 20.06.07   #5
    Relativ easy zum ueben mit nem Wah is come as you are.. einfach im takt das Pedal treten..
    Das ist aber eher nen scheißlied, desswegen macht das schon nach 5 minuten kein spaß mehr.. Voodoochild is fuer den Anfang glaube ich etwas schwer mit wah zu spielen!! ;)
    Also come as you are, oder halt nen paar selbstausgedachte riffs.. So kriegt mans eigentlich am besten raus!
     
  6. MartymcFly

    MartymcFly Threadersteller Registrierter Benutzer

    Im Board seit:
    16.01.07
    Zuletzt hier:
    29.02.08
    Beiträge:
    110
    Zustimmungen:
    0
    Kekse:
    50
    Erstellt: 22.06.07   #6
    Hallo zusammen,

    erst einmal vielen lieben Dank für die vielen Antworten!
    "Black Label society - Fire it up" finde ich dann doch etwas zu simpel, dennoch danke für den Tipp.
    Der Vorschlag "Voodoo Child" dagegen gefällt mir sehr gut (Danke an Maggisus). Nur finde ich die Tabs, die Maggisus angehängt hat, klingen irgendwie etwas abweichend vom Original..

    Zum Beispiel habe ich im Netz diese Version gefunden, die ich auf den ersten Blick identischer finde: Irre ich mich da? Welche Version ist die richtige?


    e|------------------------------------|---------------------------|
    B|------------------------------------|---------------------------|
    G|------------------------------------|---------------------------|
    D|12/14\12---------12-----------------|--12/14\12--------14-14p12-|
    A|----------12/14-----10--10-10/12~~~\|-----------12/14-----------|
    E|------------------------------------|---------------------------|
    ^ ^^ ^^ ^^ ^^ ^^ ^^
    e|-------------------------------------------|---------------------------|
    B|-------------------------------------------|---------------------------|
    G|-x-x-x-------------------------------------|---------------------------|
    D|-x-x-x-12/14\12---------12-----------------|--12/14\12---------12/14~~\|
    A|-x-x-x-----------12/14-----10--10-10/12~~~\|-----------12/14-----------|
    E|-x-x-x-------------------------------------|---------------------------|

    ^^ ^^ ^^ ^^ ^^ ^ ^^
    e|---------------------------------------|--------------------------|
    B|---------------------------------------|--------------------------|
    G|---------------------------------------|--------------------------|
    D|-12/14\12---------12-------------------|-12/14\12--------14-14p12-|
    A|-----------12/14-----10--10-10/12p10---|----------12/14-----------|
    E|-------------------------------------12|--------------------------|
    ^ ^^ ^^ ^^
    e|----------------------------------------|
    B|----------------------------------------|
    G|-x-x-x----------------------------------|
    D|-x-x-x-12/14\12---------12--------------|
    A|-x-x-x-----------12/14-----10--10-10/12\|
    E|-x-x-x----------------------------------|
    ^^ ^^ ^^ ^^ ^^ ^^ *(Wah off)
    e|----------------------------------------------|
    B|----------------------------------------------|
    G|-------------------14b(16)(16)(16)r14p12-----0|
    D|-12/14\12-------12-----------------------14\22|
    A|----------12/14------------------------------2|
    E|---------------------------------------------0|

    Ein schönes Reggae-Lied, das etwas exemplarisch für das Wahwah ist, mit nicht zu schweren Riffs,kennt niemand? Ich selber habe noch nie groß Reggae auf der Gitarre gespielt, aber gerade mit Wahwah müsste es doch da was geben?
     
  7. Maggisus

    Maggisus Registrierter Benutzer

    Im Board seit:
    30.08.06
    Zuletzt hier:
    4.11.16
    Beiträge:
    764
    Zustimmungen:
    0
    Kekse:
    82
    Erstellt: 22.06.07   #7
    Bei dem Beispiel wo du hier gepostet hast, ist die Gitarre auf "Normal Tuning" bei dem was ich dir gegeben habe wird die Gitarre jeweils um einen halben Ton heruntergestimmt. So ist es auch beim Orginalen.

    Mfg:great:
     
  8. MartymcFly

    MartymcFly Threadersteller Registrierter Benutzer

    Im Board seit:
    16.01.07
    Zuletzt hier:
    29.02.08
    Beiträge:
    110
    Zustimmungen:
    0
    Kekse:
    50
    Erstellt: 22.06.07   #8
    Vielen Dank für die schnelle Antwort. Dann bleibe ich beim Standard-Tuning, da ich kein Freund von ständigem runter und wieder hochstimmen der Saiten bin. Nochmals Danke für die Videos und den Tipp.
     
  9. peter55

    peter55 A-Gitarren, Off- & On-Topic Moderator HFU

    Im Board seit:
    29.01.07
    Beiträge:
    49.273
    Ort:
    Urbs intestinum
    Zustimmungen:
    11.996
    Kekse:
    196.775
    Erstellt: 22.06.07   #9
    Hi,

    eins meiner absoluten Lieblings-Wah-Stücke ist "Poor Boy" von Chicken Shack, kenne kaum ein anderes, wo das Wah so schön "spricht".

    Greetz :)
     
  10. AWESOM-O

    AWESOM-O Registrierter Benutzer

    Im Board seit:
    10.06.07
    Zuletzt hier:
    4.12.16
    Beiträge:
    2.639
    Zustimmungen:
    254
    Kekse:
    8.654
    Erstellt: 22.06.07   #10
Die Seite wird geladen...

mapping