Favourite licks für solo-spiel

m?h

m?h

Registrierter Benutzer
Zuletzt hier
29.12.14
Mitglied seit
21.08.03
Beiträge
825
Kekse
98
Ich dachte es wäre an der zeit (da ich keinen ähnlichen thread gefunden habe), ein thema zu öffnen, in dem die gitarristen ihre beliebtesten licks posten.

Damit meine ich jetzt nicht ganze soli o.ä., sondern ich dachte da an sachen wie winzige passagen, wahrscheinlich meist nur ein paar noten hintereinander, die ihr bei anderen gitarristen entdeckt habt bzw die euch eingefallen sind und die ihr regelmäßig (oder häufig) beim eigenen solospiel verwendet!!

zuerst bitte ich mal um feedback, dann post ich auch gern meine fav. licks!

na denn, lange tage, angenehme nächte, fangt an!
:great:
 
Tonic

Tonic

Registrierter Benutzer
Zuletzt hier
12.01.07
Mitglied seit
19.03.05
Beiträge
766
Kekse
199
Ort
Leverkusen
^ ...................^........................ ^
-----5----8----------------------------------------------
-8--------------8-----5-----8------------5------8-------
-----------------------------------7---------------------
---------------------------------------------------------
---------------------------------------------------------
---------------------------------------------------------



^
---------------------------------------------------------
---------------------------------------------------------
--7-----5-----------7----5------------------------------
--------------7----------------7----5-------------------
------------------------------------------7------6-----5
---------------------------------------------------------



.............^......................................... ^
---------------------------------------------------------
---------------------------------------------------------
---------------------------------------------------------
---------------------------------------------------------
--3------5--------------3--------------------------------
--------------------------------4-------5~~~/0---------

^ = bending
habs mal in nem video gesehen wie Slash sowas öhnliches spielt. Habs probiert zu imitieren, das kam dabei raus
Die Punkte sind nur da, weil wenn ich leerzeichen mache kommen die ^'s nur am Anfang der Zeile
 
m?h

m?h

Registrierter Benutzer
Zuletzt hier
29.12.14
Mitglied seit
21.08.03
Beiträge
825
Kekse
98
----------------------7----------
------8-----8--10bu-------10bd----
-7h9-----9--------|--------|-----
------------------[hold]----[release]
---------------------------------
---------------------------------


sowas in der art hab ich mal jerry cantrell beim alice in chains unplugged machen gesehen
 
Hellfire

Hellfire

Registrierter Benutzer
Zuletzt hier
11.11.12
Mitglied seit
01.07.04
Beiträge
2.461
Kekse
1.163
Ich triller die ganze Zeit Arpeggios runter... macht mir irgendwie am meisten Spaß. Und ab und an halt Läufe durch die Moll-Tonleiter. Bestes Beispiel dafür wär wohl das Fade To Black - Solo. Da hab ich mir das auch größtenteils abgespickt. :D
 
A.P.

A.P.

Registrierter Benutzer
Zuletzt hier
22.03.09
Mitglied seit
23.11.04
Beiträge
969
Kekse
195
Ort
Ösiland
classic

--------------------------------------
--5----5----5----5----5----5----5-----
----8b---8b---8b---8b---8b---8b---8b--
--------------------------------------
--------------------------------------
--------------------------------------
--------------------------------------

hört sich auch an andren stellen gut an
 
m?h

m?h

Registrierter Benutzer
Zuletzt hier
29.12.14
Mitglied seit
21.08.03
Beiträge
825
Kekse
98
ich mag verbindungen von schnellen sachen mit langgezogenen bendings!!
ala:

-15p14p12~~----12bu-[hold......]-12bd--
--------------15--------------
-------------------
--------------
---------
------
 
VERITAS

VERITAS

Registrierter Benutzer
Zuletzt hier
01.03.10
Mitglied seit
20.03.05
Beiträge
248
Kekse
133
Ort
NRW
naja weiß nich sowas

-----10-------10h15p10---------10h17p10-----------------
---11--11--11----------11---11----------11--------------
-12------12---------------12---------------12------------
----------------------------------------------------------
----------------------------------------------------------
----------------------------------------------------------

höre ich ständig in irgw. solos.aber is auf jedenfall einer meiner lieblingslicks
 
Penetranzbestie

Penetranzbestie

Registrierter Benutzer
Zuletzt hier
30.01.10
Mitglied seit
11.02.05
Beiträge
91
Kekse
22
war grad auf der suche nach coolen licks und hab mir den thread hier durchgelesen
aber wie soll mann denn beim letzen lick nen hammeron von 10 auf 17 machen....
scheint als müsste ich noch viel üben...
 
SteveVai

SteveVai

Registrierter Benutzer
Zuletzt hier
16.11.14
Mitglied seit
08.12.05
Beiträge
1.294
Kekse
3.051
Ort
Wien
Ich finde diesen sehr geil. sehr exotisch durch die verschiedenen Töne:

E---------------------------------
A---------------------------------
D---------------------------------
G----------------14-------11------
B----------14-13----13h14---------
E-11-15-11------------------------

Auf cleanem Sound mit viel Speed, find ich den sehr nett :great:
 
PhilipH.

PhilipH.

Registrierter Benutzer
Zuletzt hier
16.07.18
Mitglied seit
26.01.05
Beiträge
312
Kekse
574
Ort
Lgz bei N
Aus "Black Star" von Malmsteen.... Das ganze Lied ist sehr schwer, aber der Teil hier ist machbar


2x

e|-----------------14-15-14----------19b-19~-14-17-15-14-
H|-17b-17~-16-17-----------16-17~------------------------
G|----------------------------------------------------------
D|----------------------------------------------------------
A|----------------------------------------------------------
E|----------------------------------------------------------

e|-12-15-14-12-11-12-14-11-12~---------------------------
H|----------------------------------------------------------
G|----------------------------------------------------------
D|----------------------------------------------------------
A|----------------------------------------------------------
E|----------------------------------------------------------

1x (Der Teil ist original etwas anders, aber ich spiel ihn so)
e|-19-20-17-20-15-20----20-17-20-19-20-20b-20~----------
H|---------------------19----------------------------------- wird schön langsam gespielt
G|----------------------------------------------------------
D|----------------------------------------------------------
A|----------------------------------------------------------
E|----------------------------------------------------------



Das ist jetzt ein etwas längerer Lick....hier noch ein kurzer

e|-10-13-12-10-7-10-8-7-----------------------------------
H|----------------------------------------------------------
G|----------------------------------------------------------
D|----------------------------------------------------------
A|----------------------------------------------------------
E|----------------------------------------------------------
 
T

The One

Registrierter Benutzer
Zuletzt hier
18.10.17
Mitglied seit
30.09.05
Beiträge
22
Kekse
0
wenn ihr schon Licks postet, schreibt doch gleich die entsprechenden Skalen dazu.
 
StevieRay

StevieRay

Registrierter Benutzer
Zuletzt hier
27.09.07
Mitglied seit
07.04.05
Beiträge
81
Kekse
0
Ort
Edermünde bei Kassel
e|---12-----------12~~~~~~~~---------------------------------------------------------------------
H|--------15------15bu---------15bd---12------12~~~~~~~~-------------------------------------
G|-------------------------------------------------14bu---------14bd------12--------12-----14br--12
D|---------------------------------------------------------------------------------14-------------------
A|-------------------------------------------------------------------------------------------------------
E|-------------------------------------------------------------------------------------------------------
 
Thorn

Thorn

Registrierter Benutzer
Zuletzt hier
11.04.18
Mitglied seit
03.04.04
Beiträge
1.137
Kekse
94
----------------------- -----------------------------------
-------12-------12--- -----------------------------------
-14b------14b------- etc. dann -14s12-----12h14p12-----12~-
----------------------- -------------14-------------14-------
----------------------- -----------------------------------
----------------------- -------------------------------------

^
das erste nach Gefühl, Geschwindigkeitsvariierend und dann zum Zweiten wechseln...


Sowas in der Art halt;)
 
ESPschredder

ESPschredder

Registrierter Benutzer
Zuletzt hier
13.12.09
Mitglied seit
22.09.05
Beiträge
588
Kekse
190
Ort
Uelzen
hm...ich hab mir im Laufe der Zeit irgendwie unterbewusst eingeprägt, welcher Ton sich jetzt am besten anhören wird bzw. wo der liegt den ich jetzt hören will und naja...ohne über Skalen und Tonarten etc. nachzudenken halt...
Dann kann ich halt so ein wenig improvisieren, schnelle Läufe hab ich genug auswendig gelernt, die bau ich dann auch noch ein, und sweeped Arpeggios kann man ja eh so schön verschieben, die kommen dann auch hin und wieder zum Zug.
 
L

ladyhammett

Registrierter Benutzer
Zuletzt hier
28.02.06
Mitglied seit
07.11.05
Beiträge
39
Kekse
134
Ort
wegberg (nrw)
e-----------------------------------------------------5--------------------------------------------
b-----7b9r7-------------------------------------5------5---8b10---8b10~----8b10r8--5--8--5-
G-----7b9r7~---5~~~----------5~-----7b9------------------------------------------------------
D---------------------------7~---------------------------------------------------------------------
A----------------------------------------------------------------------------------------------------
E----------------------------------------------------------------------------------------------------

e----------------------------------------------------------------------------------------------------
b----------------------------------------------------------------------------------------------------
G----7--5----------------5-------------------------------------------------------------------------
D------------7--5--5h7---------7~----------------------------------------------------------------
A----------------------------------------------------------------------------------------------------
E----------------------------------------------------------------------------------------------------

kommt ein bisschen verspätet,aber ich find den lick cool;) . kann in allen möglichen tonlagen gespielt werden.
 
CMatuschek

CMatuschek

Registrierter Benutzer
Zuletzt hier
28.11.09
Mitglied seit
01.05.05
Beiträge
868
Kekse
218
Ort
Wesel
^ bend up
---- hold bend
5(7) die zahl in der klammer ist der ton auf dem man beim benden kommen soll (in diesem fall n ganztonbending)


Das rock-clichés überhaupt(kann man als triole spieln)

____^-----------^---------^----
e-------------5-----------5---------5-----------
b----------5-----------5---------5-------------
G----7(9)-------7(9)------7(9)---------------
D----------------------------------------------
A----------------------------------------------
E---------------------------------------------

Das klingt hauptsächlich auf den tiefen saiten gut, die jeweils beiden letzten (7) kann man dämpfen bei zerre)
e-------------------------------------------------
b-------------------------------------------------
G-----------------------------------------------
D----------------------------------------------
A----------------------------5h7-7-7---5h7-7-7-------------------
E---5h7-7-7----5h7-7-7-------------------------------------


Sehr simpel aber immer geil und einfach auf n hohen tempo zu bringen (damit kann man sehr gut beeindrucken obwohls ja eingentlich nix schwieriges iss):
e--------------------------------------------------------
b-------------------------------------------------------
G---------------------------------------------
D-------------------------5h7---------------------
A---------5h7------5h7------5h7-------------------------
E----5h7------5h7-----------------------------------

schon ein bisschen "spezifischer"
____________^----------_____________fast bend
e------------------------------------------------------
b---------------------8---------------------8(10)---------
G---------5-7--(9)------(9)release7--5------
D----5-7-----------------------------------------
A----------------------------------------------
E---------------------------------------------



so, das sind son paar grundlegenste :)
 
S

SUPAHELD

Registrierter Benutzer
Zuletzt hier
21.03.11
Mitglied seit
08.12.05
Beiträge
104
Kekse
0
Ort
Georgsmarienhütte
nicht müde werden :)
mit dem eigentlichen soli schreiben/improvisieren fang ich grad erst an, ich brauch stoff :D
 
Atrowurst

Atrowurst

Registrierter Benutzer
Zuletzt hier
08.12.13
Mitglied seit
31.08.04
Beiträge
924
Kekse
658
Ort
Wien
CMatuschek schrieb:
^ bend up
---- hold bend
5(7) die zahl in der klammer ist der ton auf dem man beim benden kommen soll (in diesem fall n ganztonbending)
x
x
x
so, das sind son paar grundlegenste :)

g0t Stetina? :p ;)
 
Kettens?genKalle

Kettens?genKalle

Registrierter Benutzer
Zuletzt hier
23.02.12
Mitglied seit
18.09.05
Beiträge
87
Kekse
96
Ort
Bonn
Code:
E||--------------------------------------------------|
B||--15-12----12-15-12----12-15-12-15-12----12-14-12-|
G||--------14----------14----------------14----------|
D||--------------------------------------------------|
A||--------------------------------------------------|
E||--------------------------------------------------|


               
--------------------------------------------------|----------------------||
-----12-14-12----12-14-12-14-12----12-14-12----12-|--15b~----------------||
--14----------14----------------14----------14----|----------------------||
--------------------------------------------------|----------------------||
--------------------------------------------------|----------------------||
--------------------------------------------------|----------------------||
in dem Fall ist das halt E-Moll mit erhöhter Sext
 
ESPschredder

ESPschredder

Registrierter Benutzer
Zuletzt hier
13.12.09
Mitglied seit
22.09.05
Beiträge
588
Kekse
190
Ort
Uelzen
3 Note-Per-String-Tonleitern mit String skipping im Arpeggio Style hoch und runter spielen kommt übrigens auch gut.

Schau dir mal ein paar sachen von Paul Gilbert an, der macht endgeile Licks. Nicht schwer, aber schnell. Und geil ;)
 

Ähnliche Themen

Unser weiteres Online-Angebot:
Bassic.de · Deejayforum.de · Sequencer.de · Clavio.de · Recording.de

Musiker-Board Logo
Oben