Intro von Seek and Destroy

von Steffe, 27.06.05.

  1. Steffe

    Steffe Registrierter Benutzer

    Im Board seit:
    05.03.05
    Zuletzt hier:
    3.10.06
    Beiträge:
    69
    Ort:
    Taucha
    Zustimmungen:
    0
    Kekse:
    10
    Erstellt: 27.06.05   #1
    ja, hallo, mich beschäftigt das shcon ne ewigkeit, unzwar
    ihr kennt doch bestimmt das intro von metallica "seek and destroy"

    bekommt das jemand fast haargenau so hin?
    weil da gibts 2 mal 3 aneinanderhängende töne, die ich einfach nich so schnell hinbekomme, habt ihr vorschläge, wie man das hinkriegen könnte?
    das is genauso bei "sanitarium" da geht es nach dem (12 - 12) auch so schnell einige töne, habt ihr tipps, wie man das so schnell hinbekommt?

    ciao
     
  2. Stringgod

    Stringgod HCA Gitarre HCA

    Im Board seit:
    31.08.04
    Zuletzt hier:
    30.12.14
    Beiträge:
    2.111
    Ort:
    Essen
    Zustimmungen:
    4
    Kekse:
    2.130
    Erstellt: 27.06.05   #2
    Ich hab mal für dich die Suchfunktion benutzt. :rolleyes:

    https://www.musiker-board.de/vb/search.php?searchid=767838
     
  3. Maverick018

    Maverick018 Registrierter Benutzer

    Im Board seit:
    02.11.03
    Zuletzt hier:
    7.12.16
    Beiträge:
    1.563
    Ort:
    Markgröningen
    Zustimmungen:
    5
    Kekse:
    383
    Erstellt: 27.06.05   #3
    Beschäftige dich mal mit Hammer On's und Pull Off's, dann sollten solche Sachen keine Probleme mehr sein. ;)
     
  4. Trailblazer

    Trailblazer Registrierter Benutzer

    Im Board seit:
    12.09.04
    Zuletzt hier:
    28.04.08
    Beiträge:
    154
    Ort:
    Bamberg
    Zustimmungen:
    0
    Kekse:
    24
    Erstellt: 27.06.05   #4
    das sind alles Pull offs und hammer ons.

    Seek and Destroy:

    Play eight times
    E||-----------------------------|---------------------||
    B||-----------------------------|---------------------||
    G||*--------7h8-7--------------|--------------5-----*||
    D||*-----------------7h8-7-----|--------5--------7--*||
    A||---0--0--------0---------0--|--8--7-----7---------||
    E||-----------------------------|---------------------||
    P.M. ^ ^ ^ ^ ^ ^ ^

    du schlägst auf der G-Saite im 7. bund an und "hämmerst" dann mit einem finger auf den 8. Bund auf der G-Saite und dann schlägst du sofort danach wieder im 7. Bund an. Ist eigentlich nicht so schwer


    sanitarium

    -------<12>---------3---3h5p3/2--|
    -----------<12>----------------|
    --------------------------------|
    --------------------------------|
    --------------------------------|
    0-------------------------------|

    da schlägst du im 3. bund an, "hämmerst" dann einen finger auf den 5. Bund und "ziehst" den finger so schnell wie möglich wieder weg und slidest dann sofort in den 2. Bund
     
Die Seite wird geladen...

mapping