Mixolydischer Groove?

von The Chicken, 18.10.06.

  1. The Chicken

    The Chicken Registrierter Benutzer

    Im Board seit:
    17.05.06
    Zuletzt hier:
    20.08.09
    Beiträge:
    41
    Ort:
    Unna
    Zustimmungen:
    0
    Kekse:
    10
    Erstellt: 18.10.06   #1
    Hi, in dem Buch "Masters of Bass Guitar" steht über einem Lick das es ein Mixolydischer Groove ist. Es ist ohne Vorzeichen und deswegen geh ich mal davon aus, dass es C-Dur ist. Charakteristisch für das mixolydische ist ja die b7 das wäre also in diesem falle das a#. Nur finde ich in dem ganzen Lick kein a#. Kann mir das jemand erklären?:o

    Hier die Tabs:

    G7
    -----------------------------------------------------------------------------------------------------
    ------------5--5--5----------------------------------------------3----------------------------------
    -------------------------3--5--------------------2----3--3--5-----------------------5--5--5-------
    ---3------------------------------------3-------------------------------------3---------------------

    C7
    --------------------------------------------------------------------
    ----------------------2--3--4--5---------------------------------
    --------------5---------------------------3-----------------------
    ---3---------------------------------------------------------------
     
  2. S.O.D

    S.O.D Guest

    Kekse:
    0
    Erstellt: 18.10.06   #2
    Das Teil ist wohl aus einem Blues.

    Bei G7 ist es das F
    und bei C7 ist es das Hb

    Eigentlich ganz einfach. ;)

    Btw: ein paar chromatische Durchgangstöne sind ja auch mit dabei.

    Gruß

    Edit: Über G7 G Mixo und über C7 C Mixo... ;)

    Edit II: Und es wäre auch kein A# sonder ein Hb, da es ja eine b7
     
  3. The Chicken

    The Chicken Threadersteller Registrierter Benutzer

    Im Board seit:
    17.05.06
    Zuletzt hier:
    20.08.09
    Beiträge:
    41
    Ort:
    Unna
    Zustimmungen:
    0
    Kekse:
    10
    Erstellt: 18.10.06   #3
    Ah ich verstehe, vielen dank....ich bin von C- Dur ausgegangen für den ganzen Groove....
    und da hab ich mich halt gewundert, aber jetzt ist alles klar.
    Vielen Dank....Gruß, Philipp
     
Die Seite wird geladen...