[Solo] We weren't born to folow - Bon Jovi

  • Ersteller TubeTom
  • Erstellt am

TubeTom
TubeTom
Fa. Skeen-Music
Zuletzt hier
25.09.22
Registriert
15.04.05
Beiträge
194
Kekse
453
Ort
Soest (nähe Dortmund)
Ich bin total am verzweifeln. Ich suche vergeblich nach einer Tabulatur von dem Solo von We weren't born to folow - Bon Jovi. Mir fehlt der schnelle Part direkt zu Beginn des Solos. Es gibt ja zwei Versionen. Ich meine die, die auch auf dem Album ist und die Richie auch live spielt. Leider kann man nie gut erkennen, was der gute Herr Sambora da genau spielt und die Aufnahmen sind für das Tempo leider zu schlecht. Aber ich gebe die Hoffnung nicht auf und hoffe, dass ich hier Freaks gibt, die das raushören konnten.

Ich meine es wäre etwas in dieser Art, aber es ist doch noch irgendwie anders:

|-------7-9-7------|
|--7-9--------9 7--|und immer wiederholen ...
|-------------------|
|-------------------|
|-------------------|
|-------------------|
 
Eigenschaft
 
W
wolfbiker
Registrierter Benutzer
Zuletzt hier
23.06.19
Registriert
12.08.07
Beiträge
450
Kekse
817
Ort
Zuhause
Ansatz (Anhang)
 
R
rock-star-teeny
Registrierter Benutzer
Zuletzt hier
05.03.11
Registriert
11.02.09
Beiträge
3
Kekse
0
vielleicht kommst du damit weiter. Soviel hab ich rausgehört:
4 mal wiederholen, dann:
----H------H--P---H--------H-----------bend up 1,release--H--
|-------7---------------| |-------7------9---------------(9)---7--9|
|--7--9---7--9--7-----| |-7--9----7-----------------------------|
|-------------------8---| |----------------------------------------|
|-----------------------| |----------------------------------------|
|-----------------------| |----------------------------------------|
|-----------------------| |----------------------------------------|
Dann:-------------------Dann:
Palm mute--------BU 1/2------BU 1-release--
|-------------| |----------------------------------|
|-------------| |---16---------14----(14)-----12|
|-------------| |----------------------------------|
|-------------| |----------------------------------|
|-------------| |----------------------------------|
|-12--11--12| |----------------------------------|

Dann:
--------------P---------------SD----------SD----------SD---------SD---------SD
|12--12--12-----------------------------------------------------------------------------------------|
|12--12--12--11--11--11--11\9--9--9--9\7--7--7--7\5--5--5--5\4--4--4--4\2--2--4--2------2|
|-------------------------------------------------------------------------------------------------4---|
|-----------------------------------------------------------------------------------------------------|
|-----------------------------------------------------------------------------------------------------|
|-----------------------------------------------------------------------------------------------------|

Dann:
-----------BU 1/2---------P.H.
|----------------------------------|
|----------------------------------|
|----------3----------------------|
|-------------------4-------------|
|----------------------------4----|
|----0----------------------------|
 

Ähnliche Themen


Neue Themen

Unser weiteres Online-Angebot:
Bassic.de · Deejayforum.de · Sequencer.de · Clavio.de · Guitarworld.de · Recording.de

Musiker-Board Logo
Oben