Noten heraushören???

von Lambado1, 23.02.07.

  1. Lambado1

    Lambado1 Registrierter Benutzer

    Im Board seit:
    20.07.06
    Zuletzt hier:
    2.03.07
    Beiträge:
    72
    Zustimmungen:
    0
    Kekse:
    10
    Erstellt: 23.02.07   #1
    Hi!!!
    Kann mir jemand die Noten heraushören wäre ihm oder ihr sehr dankbar!

    Mfg Lambado
     

    Anhänge:

  2. black-skull

    black-skull Registrierter Benutzer

    Im Board seit:
    21.12.03
    Zuletzt hier:
    26.06.16
    Beiträge:
    1.488
    Zustimmungen:
    3
    Kekse:
    156
    Erstellt: 23.02.07   #2
    hi

    ich glaub das gehört woanders hin aber egal hier ,wahrscheinlich nicht alles richtig!

    PHP:
                                   |: drei mal wiederholen mit kleinen veränderungen)               :|
    -----------------------------------
    6--------------------------------6----------------------------------
    -----------~----------------------
    6--------------------------------6----------------------------------
    -----------
    5--3------------------------------(1/4bend)  ------------------------(1/4bend)---
    --
    3-/-5---------5--3-------5--------5--5---------------------5---------5--------------------------
    ------------------------------------------------------------------------------
    3-5------------------------
    -----------------------------------------------------------------------------------------------------



    --------------------------------------------------------------------------------
    6--------------6b7-
    --------------------------------------------------------------------------------
    6--------------------
    ------------------------------------------------
    (1/2 release)------------------------3-5-------
    --
    5-/-3----------/-3----8-/-5---5-/-3------------------------------5-5----------5--------------
    ----------
    5-/-3---------------------------------------------------------------------------------------
    ------------------------------------------------------------------------------------------------------


    -------
    6----------------6b7------------6--------------------------6/--------------------------------------
    -------
    6--------------------------------6--------------------------6/----------------------------------
    ------------------
    3-5------------------------------------3-----------------------------------------------
    ---
    5----------5---------------------5------------3-5--------------5/----------------------------------------
    -----------------------------------------------
    5----------------------------------------------------
    ---------------------------------------------------------------------------------------------------




    mfg
    black-skull
     
  3. Lambado1

    Lambado1 Threadersteller Registrierter Benutzer

    Im Board seit:
    20.07.06
    Zuletzt hier:
    2.03.07
    Beiträge:
    72
    Zustimmungen:
    0
    Kekse:
    10
    Erstellt: 23.02.07   #3
    cool danke !!!
    bin aber für jedere weiter hilfe auch dankbar!!
     
  4. black-skull

    black-skull Registrierter Benutzer

    Im Board seit:
    21.12.03
    Zuletzt hier:
    26.06.16
    Beiträge:
    1.488
    Zustimmungen:
    3
    Kekse:
    156
    Erstellt: 23.02.07   #4
    eben noch was kurz zum tab : hab meine gitarre auf C gestimmt ... und ist eben für C geschrieben das tab , ist aber kein prob das zu umzuwandeln denk ich mal...

    mfg
    black-skull
     
  5. Lambado1

    Lambado1 Threadersteller Registrierter Benutzer

    Im Board seit:
    20.07.06
    Zuletzt hier:
    2.03.07
    Beiträge:
    72
    Zustimmungen:
    0
    Kekse:
    10
    Erstellt: 24.02.07   #5
    ehm *hust* wie wandel ich dass den um??
     
  6. DenniZ_10000

    DenniZ_10000 Registrierter Benutzer

    Im Board seit:
    12.01.06
    Zuletzt hier:
    29.08.14
    Beiträge:
    1.339
    Ort:
    Hamburg
    Zustimmungen:
    4
    Kekse:
    1.441
    Erstellt: 24.02.07   #6
    Mh also wenn du deine Gitarre auf C runter stimmst stimmst du sie: richtig 4 Halbtöne bzw. 2Ganztöne hinunter. D.h. (wenn ich den Post von black-skull richtig verstanden habe) dass du den Tab in die Standart-Stimmung unschreiben musst. Also eine 5 wär dann eine 1 weil:
    1 Bund= ein Halbton
    C Stimmung= 4 Halbtöne runter
    5-4=1

    und so musst du das bei jedem Ton machen einfach immer "-4" rechnen und wenn da negative Zahlen raus kommen musst du natürlich eine Saite höher "springen" und den Ton dort spielen.
     
  7. Lambado1

    Lambado1 Threadersteller Registrierter Benutzer

    Im Board seit:
    20.07.06
    Zuletzt hier:
    2.03.07
    Beiträge:
    72
    Zustimmungen:
    0
    Kekse:
    10
    Erstellt: 24.02.07   #7
    ah danke !!!
     
  8. Lambado1

    Lambado1 Threadersteller Registrierter Benutzer

    Im Board seit:
    20.07.06
    Zuletzt hier:
    2.03.07
    Beiträge:
    72
    Zustimmungen:
    0
    Kekse:
    10
    Erstellt: 24.02.07   #8
    meinst du es so?
     

    Anhänge:

  9. DenniZ_10000

    DenniZ_10000 Registrierter Benutzer

    Im Board seit:
    12.01.06
    Zuletzt hier:
    29.08.14
    Beiträge:
    1.339
    Ort:
    Hamburg
    Zustimmungen:
    4
    Kekse:
    1.441
    Erstellt: 25.02.07   #9
    Ich denke so ist es jetzt richtig:

    Ich hab die Lage etwas geändert, damit du nicht dauernd umgreifen musst...
     

    Anhänge:

  10. Lambado1

    Lambado1 Threadersteller Registrierter Benutzer

    Im Board seit:
    20.07.06
    Zuletzt hier:
    2.03.07
    Beiträge:
    72
    Zustimmungen:
    0
    Kekse:
    10
    Erstellt: 25.02.07   #10
    thx

    mfg Lambado
     
  11. s!d

    s!d Registrierter Benutzer

    Im Board seit:
    02.10.04
    Zuletzt hier:
    17.11.16
    Beiträge:
    1.724
    Ort:
    Mainz
    Zustimmungen:
    18
    Kekse:
    3.080
    Erstellt: 25.02.07   #11
    ...

    du bist
    1. im falschen Unterforum, und das weißt du auch.. da du nämlich
    2. bei Tabs/Spieltechniken schonmal einen Thread für's gleiche Lied aufgemacht hast

    Denk doch bitte dran, dass das hier ein Service von anderen Leuten ist und keine Bestellhotline für Tabs... also halte mal den Ball etwas flacher und akzeptier es wenn nicht nach 10Minuten dein gewünschtes Tab hier erscheint...

    s!d

    Edit:
    Ich sehe gerade, dass du nicht im Tabs/Spieltechniken-Unterforum deine Frage gestellt hast, sondern jetzt zum 2ten Mal in der Plauderecke... Mach so weiter...
     
  12. Bluesmaker

    Bluesmaker Registrierter Benutzer

    Im Board seit:
    27.04.04
    Zuletzt hier:
    28.02.12
    Beiträge:
    838
    Ort:
    Hamburg
    Zustimmungen:
    4
    Kekse:
    621
    Erstellt: 08.03.07   #12
    Hi,

    Dein Problem hat ja schon jemand gelöst. Dennoch möchte ich mal kurz an dieser Stelle mein wichtigstes Tool vorstellen:

    Gestatten, mein Name ist: Tascam Guitar-Trainer .... und hier ist das feine Teil ...

    Guitartrainer - Guitar Trainer - Tascam CD-GT1MKII

    Warum ich das schreibe ? Nun, mit dem Teil hab ich mir hunderte von Licks rausgehört. Ist genial das Ding. Man kann die Geschwindigkeit bei gleicher Tonhöhe reduzieren. Dadurch lassen sich auch schnelle "Killerlicks " raushören. Ebenfalls kann man bei gleicher Geschwindigkeit auch die Tonhöhe verändern. Das Teil hat zig Funktionen die ich hier aber nicht alle aufführen will. Ohne kann ich mir als Cover-Gitarrist nicht mehr vorstellen. :great:
     
Die Seite wird geladen...

mapping