Woher bekomm ich Huey Lewis Tabs ?

von I can't resist, 22.02.06.

Status des Themas:
Es sind keine weiteren Antworten möglich.
  1. I can't resist

    I can't resist Gesperrter Benutzer

    Im Board seit:
    23.01.06
    Zuletzt hier:
    7.03.06
    Beiträge:
    123
    Zustimmungen:
    0
    Kekse:
    53
    Erstellt: 22.02.06   #1
    ?????
     
  2. Hardest_Button

    Hardest_Button Registrierter Benutzer

    Im Board seit:
    24.09.05
    Zuletzt hier:
    20.05.06
    Beiträge:
    4
    Ort:
    Herne
    Zustimmungen:
    0
    Kekse:
    10
    Erstellt: 04.03.06   #2
    Geh doch einfach auf google und suche nach Huey Lewis Tabs
    geht am Schnellsten.
    ansonsten hätte ich noch www.taborama.com oder www.mxtabs.net im Angebot.
     
  3. GoodYear

    GoodYear Registrierter Benutzer

    Im Board seit:
    20.12.04
    Zuletzt hier:
    17.08.15
    Beiträge:
    1.923
    Ort:
    Köln
    Zustimmungen:
    14
    Kekse:
    2.229
    Erstellt: 05.03.06   #3
    Stimmt. Ich hab grad mal ne Minute gegoogelt und das hier gefunden. Bitteschön:

    The Power of Love - Huey Lewis and the News:
    Code:
    Flat E A D G
    
       Intro                        
    G|-------------------------------------------------------|
    D|-------------------------------------------------------|
    A|-3-3-3-3-----------------------------------------------|3x
    E|----------0-0-0-0-0----1-1-1-1---3-3-3-3---------------|
    
       Verse
    G|-------------------------------------------------------|
    D|---------1---1--3~-1--------1-------3---3---3---3------|
    A|--3--1-3---3---------3--1-3---3------------------------|
    E|---3------------------3---------0-1---1---1---1--------|
    
       Chorus   
    G|-------------------------------------------------------|
    D|-------------------------------------------------------|
    A|-3-3-3-3-----------------------------------------------|
    E|----------0-0-0-0-0----1-1-1-1---3-3-3-3---------------|
    
       End With
    G|--------------------|
    D|--------------------|
    A|1-1-1---------------|
    E|------1-1-1--3-3-3--|
    
       Interlude
    G|-------------------------------------------------------|
    D|-------------------------------------------------------|
    A|----6-6-----3-3------------6-6-----6-6-----------------|
    E|--------3-3-----1-1---4-4------4-4-----4-4--3-3-3-3-3--|
    
       Guitar Solo
    G|-------------------------------------------------------|
    D|---------1---1--3~-1--------1-------3---3---3---3------|
    A|--3--1-3---3---------3--1-3---3------------------------|
    E|---3------------------3---------0-1---1---1---1--------|
    
       End With Intro
    G|-------------------------------------------------------|
    D|-------------------------------------------------------|
    A|-3-3-3-3-----------------------------------------------|
    E|----------0-0-0-0-0----1-1-1-1---3-3-3-3---------------|
    Ich hab aber keine Ahnung ob das stimmt, denn ich kann leider selbst keine Tabs lesen.

    Gruß,

    Pablo
     
  4. Groofus

    Groofus Registrierter Benutzer

    Im Board seit:
    11.01.04
    Zuletzt hier:
    19.06.16
    Beiträge:
    727
    Ort:
    on the dark side of the moon.
    Zustimmungen:
    5
    Kekse:
    2.153
    Erstellt: 06.03.06   #4
    Lieber mal faul sein und die anderen googlen lassen, nich war HollywodRo... äh... I can't resist?
     
Die Seite wird geladen...

Status des Themas:
Es sind keine weiteren Antworten möglich.
mapping