Workshop | "Metallica - Master of Puppets"

  • Ersteller Decadox
  • Erstellt am
Status
Für weitere Antworten geschlossen.
-N-O-F-X-
-N-O-F-X-
Registrierter Benutzer
Zuletzt hier
05.02.23
Registriert
09.10.03
Beiträge
5.630
Kekse
8.946
hm kanns sein dass der teil vor dem Refrain statt so:

---------10-9
---------10-9
8-8-8-8-8--7

so:
---------10-9
---------10-9
7-7-7-7-8--7

gespielt wird?
 
Maverick018
Maverick018
Registrierter Benutzer
Zuletzt hier
03.02.19
Registriert
02.11.03
Beiträge
1.553
Kekse
373
Ort
Markgröningen
-N-O-F-X- schrieb:
hm kanns sein dass der teil vor dem Refrain statt so:

---------10-9
---------10-9
8-8-8-8-8--7

so:
---------10-9
---------10-9
7-7-7-7-8--7

gespielt wird?

Bin mir zu 100% sicher, dass auf der E-Saite ein C gespielt wird, also die erste Variante stimmt schon!
 
R
rock_on
Registrierter Benutzer
Zuletzt hier
22.11.11
Registriert
13.12.04
Beiträge
752
Kekse
351
Super Beitrag. Auch ich würde dich gerne bewerten - geht grad aber ned. Soviel Mühe wie du dir dafür gegeben hast. Ich lern das Lied auch grad. Ist ja eines der wenigen bekannten Lieder die man noch wirklich "lernen" muss ;)
 
R
R4g3
Registrierter Benutzer
Zuletzt hier
17.02.08
Registriert
03.06.04
Beiträge
200
Kekse
10
Ort
Berg. Gladbach
Kann dieser gute Workshop nicht mal in den FAQ und Workshop Bereich verschoben werden......? Hier geht er doch irgendwann verloren, was echt schade wäre.........
 
CoMuS
CoMuS
Registrierter Benutzer
Zuletzt hier
04.02.11
Registriert
18.06.05
Beiträge
92
Kekse
0
Gibt es eigentlich Interesse an weiteren Workshops?

Was ich noch cool fände, wenn du vllt doch n paar Tipps und tricks für die Soloparts reinschreiben könntest ( sowohl Master of Puppets als auch Enter Sandman ):great:


CoMuS
 
Decadox
Decadox
Registrierter Benutzer
Zuletzt hier
12.04.20
Registriert
16.01.05
Beiträge
577
Kekse
2.282
Ort
Bremen
CoMuS schrieb:
Was ich noch cool fände, wenn du vllt doch n paar Tipps und tricks für die Soloparts reinschreiben könntest ( sowohl Master of Puppets als auch Enter Sandman ):great:


CoMuS

Wenn ich sie etwas besser beherrsche gerne. Ich melde mich nächstes Jahr nochmals mit meinen Ergebnissen ;-)...

Ansonsten steht es jeden User zu, mal selber den Hintern von der Couch zu heben und etwas produktives fürs Forum zu tun ;-)...

PS: Ich würde mich sehr über einen Soloworkshop zu Metallicasongs freuen :)
 
Wödan
Wödan
Registrierter Benutzer
Zuletzt hier
22.10.14
Registriert
01.04.05
Beiträge
1.433
Kekse
1.083
Stringgod schrieb:
In der Guitar muss wohl auch gestanden haben, dass der Strophenteil einen 5/8 Takt beinhaltet. Das ist ganz einfach falsch.

Was ist es deiner Meinung nach wenn es kein 5/8 Takt ist? Kommt mir beim spielen sehr richtig vor....
 
S
SugarDaddy
Registrierter Benutzer
Zuletzt hier
02.10.11
Registriert
27.04.05
Beiträge
41
Kekse
58
sagt mal, wie pickt ihr bei dem teil hier?
alternate picking?
E||--------------------------|-------------------------|
B||--------------------------|-------------------------|
G||--------------------------|-------------------------|
D||--------8--------8--------|--8--------8--------8~---|
A||-----7--------7--------7--|--------7--------7-------|
E||--0--------0--------0-----|-----0--------0----------|
 
Decadox
Decadox
Registrierter Benutzer
Zuletzt hier
12.04.20
Registriert
16.01.05
Beiträge
577
Kekse
2.282
Ort
Bremen
SugarDaddy schrieb:
sagt mal, wie pickt ihr bei dem teil hier?
alternate picking?
E||--------------------------|-------------------------|
B||--------------------------|-------------------------|
G||--------------------------|-------------------------|
D||--------8--------8--------|--8--------8--------8~---|
A||-----7--------7--------7--|--------7--------7-------|
E||--0--------0--------0-----|-----0--------0----------|

Palm Mutings und Downstrokes ;)...
 
Maverick018
Maverick018
Registrierter Benutzer
Zuletzt hier
03.02.19
Registriert
02.11.03
Beiträge
1.553
Kekse
373
Ort
Markgröningen
Decadox schrieb:
Palm Mutings und Downstrokes ;)...

Das A# (8. Bund) auf der D-Saite wird imo offen, also nicht gemutet, gespielt. Und es ist auch egal, ob man es jetzt alternate oder mit Downstrokes pickt. So wie es einem gefällt.
 
Decadox
Decadox
Registrierter Benutzer
Zuletzt hier
12.04.20
Registriert
16.01.05
Beiträge
577
Kekse
2.282
Ort
Bremen
Maverick018 schrieb:
Das A# (8. Bund) auf der D-Saite wird imo offen, also nicht gemutet, gespielt. Und es ist auch egal, ob man es jetzt alternate oder mit Downstrokes pickt. So wie es einem gefällt.

Ja, genau so wie es in meinem Workshop steht :rolleyes: (Nicht böse nehmen :p)

Code:
E||--------------------------|-------------------------| 
B||--------------------------|-------------------------| 
G||--------------------------|-------------------------| 
D||--------8--------8--------|--8--------8--------8~---| 
A||-----7--------7--------7--|--------7--------7-------| 
E||--0--------0--------0-----|-----0--------0----------|
     .        .        .           .        .
 
Minoried
Minoried
Registrierter Benutzer
Zuletzt hier
30.01.16
Registriert
30.11.05
Beiträge
577
Kekse
952
Ort
Fischen
Hi

Orgh ich DANKE DIR SO HAMMER MEGA Doll löl ich hab das immer mit den normalen tabs halt ausn i net gespielt und nie wirklich hinbekommen aber so bekomm ich es hin WIRKLICH SPITZE DANKE DIR:):):):)

WEiter so

STAY ROCK :rock: :rock: :rock:
 
Decadox
Decadox
Registrierter Benutzer
Zuletzt hier
12.04.20
Registriert
16.01.05
Beiträge
577
Kekse
2.282
Ort
Bremen
Hildetraut schrieb:
Hi

Orgh ich DANKE DIR SO HAMMER MEGA Doll löl ich hab das immer mit den normalen tabs halt ausn i net gespielt und nie wirklich hinbekommen aber so bekomm ich es hin WIRKLICH SPITZE DANKE DIR:):):):)

WEiter so

STAY ROCK :rock: :rock: :rock:

Super! So ein Feedback freut mich :)
 
MetpleK
MetpleK
Registrierter Benutzer
Zuletzt hier
24.08.21
Registriert
26.04.05
Beiträge
509
Kekse
54
Ort
Frankfurt am Main
Hey echt super Workshop.Klasse gemacht :great: :great:
Ich Cover jetzt mit meiner Band endlich diesen Song (nach laaaaaaange besprechungen).
Und das habs ganz gut und ganz schnell drauf :twisted: :twisted: .
Aber es gibt 2 sachen die ich net verstehe.Das erste wäre dieser Riff.Ich verstehe net wie mans zocken soll und auf der cd hört man es auch net so doll.

Main Riff 3 (01:44 - 01:47)

Tabulatur:

Code:
E||------------------------|--------------------|--------------------|
B||------------------------|--------------------|--------------------|
G||------------------------|--------------------|--------------------|
D||------------------------|--2----2------------|--3----3------------|
A|--9--7--6----6----------|--2----2------------|--3----3------------|
E||----------------8--7----|--0----0------------|--1----1------------|

Das Zweite: Weißt du vllt was der Kirk für Powerchords im Hintergrund spielt wenn der James den Clean Part (am Ende des Breaks in der Mitte) Verzerrt zockt ?


Mfg MetpleK​
 
Wödan
Wödan
Registrierter Benutzer
Zuletzt hier
22.10.14
Registriert
01.04.05
Beiträge
1.433
Kekse
1.083
MetpleK schrieb:
Das Zweite: Weißt du vllt was der Kirk für Powerchords im Hintergrund spielt wenn der James den Clean Part (am Ende des Breaks in der Mitte) Verzerrt zockt ?

Das sind die Akkorde die auch James spielt nur als Powerchord:

E D C A H D#

MetpleK schrieb:
Aber es gibt 2 sachen die ich net verstehe.Das erste wäre dieser Riff.Ich verstehe net wie mans zocken soll und auf der cd hört man es auch net so doll.

Tabulatur:

E||------------------------|--------------------|--------------------|
B||------------------------|--------------------|--------------------|
G||------------------------|--------------------|--------------------|
D||------------------------|--2----2------------|--3----3------------|
A|--9--7--6----6----------|--2----2------------|--3----3------------|
E||----------------8--7----|--0----0------------|--1----1------------|

Du meinst wohl die Single Notes!?
Das sind jeweils zwei achtel und dann ein viertel. Das halt schnell runter zum E5 (Master! Master!)
 
Decadox
Decadox
Registrierter Benutzer
Zuletzt hier
12.04.20
Registriert
16.01.05
Beiträge
577
Kekse
2.282
Ort
Bremen
MetpleK schrieb:
Hey echt super Workshop.Klasse gemacht :great: :great:
Ich Cover jetzt mit meiner Band endlich diesen Song (nach laaaaaaange besprechungen).
Und das habs ganz gut und ganz schnell drauf :twisted: :twisted: .
Aber es gibt 2 sachen die ich net verstehe.Das erste wäre dieser Riff.Ich verstehe net wie mans zocken soll und auf der cd hört man es auch net so doll.

Main Riff 3 (01:44 - 01:47)

Tabulatur:

Code:
E||------------------------|--------------------|--------------------|
B||------------------------|--------------------|--------------------|
G||------------------------|--------------------|--------------------|
D||------------------------|--2----2------------|--3----3------------|
A|--9--7--6----6----------|--2----2------------|--3----3------------|
E||----------------8--7----|--0----0------------|--1----1------------|

Das Zweite: Weißt du vllt was der Kirk für Powerchords im Hintergrund spielt wenn der James den Clean Part (am Ende des Breaks in der Mitte) Verzerrt zockt ?


Mfg MetpleK​

Die Chords oben Stimmen! Den Part aus dem Mainriff 3 musst du einfach sehr schnell spielen.

"DIDIDI - DIDIDI - MASTER !!! - MASTER !!!" :cool:
 
P
punk'd^^
Registrierter Benutzer
Zuletzt hier
19.08.07
Registriert
03.03.06
Beiträge
94
Kekse
12
der workshop ist hammer, ich hock mich jetzt auch mehr an den song, ich saß jetzt schon eine Stunde da und hab den Song gespielt, des macht verdammt viel Spaß D

also weiter so... HAT ;IR SEHR SEHR GEHOLFEN !!!!
 
Decadox
Decadox
Registrierter Benutzer
Zuletzt hier
12.04.20
Registriert
16.01.05
Beiträge
577
Kekse
2.282
Ort
Bremen
punk'd^^ schrieb:
der workshop ist hammer, ich hock mich jetzt auch mehr an den song, ich saß jetzt schon eine Stunde da und hab den Song gespielt, des macht verdammt viel Spaß D

also weiter so... HAT ;IR SEHR SEHR GEHOLFEN !!!!

Danke! Viel Spaß noch beim Üben...:cool:
 
Status
Für weitere Antworten geschlossen.

Ähnliche Themen


Neue Themen

Unser weiteres Online-Angebot:
Bassic.de · Deejayforum.de · Sequencer.de · Clavio.de · Guitarworld.de · Recording.de

Musiker-Board Logo
Oben