Pat Metheny Group - Here to stay (youtube link inside)

von SteveVai, 27.02.08.

  1. SteveVai

    SteveVai Registrierter Benutzer

    Im Board seit:
    08.12.05
    Zuletzt hier:
    16.11.14
    Beiträge:
    1.295
    Ort:
    Wien
    Zustimmungen:
    16
    Kekse:
    3.061
    Erstellt: 27.02.08   #1
    Hallo Leute,

    ich wollte euch Fragen, ob wer Tabs (Guitar Pro, Power Tab, etc.) zum oben genannten Song des Jazz-Meisters hat.

    Kleine Teile des Songs konnte ich mehr od. weniger vom hören/sehen nachspielen, aber ich bin mir ziemlich sicher dass es so nicht ganz stimmt:o

    So z.B das charakteristische Thema:

    e--11s12-11s12-10s11s10-10----11s12--------------10-9s10-10s12-10-------
    b---------------------------------10--------------10-13----------------------13-10
    g-------------------------------------------------------------------------------------
    d-------------------------------------------------------------------------------------
    a-------------------------------------------------------------------------------------
    e-------------------------------------------------------------------------------------

    den verlgeich mit dem original gibts übrigens hier: http://www.youtube.com/watch?v=g6JlE_xRRes
     
  2. SteveVai

    SteveVai Threadersteller Registrierter Benutzer

    Im Board seit:
    08.12.05
    Zuletzt hier:
    16.11.14
    Beiträge:
    1.295
    Ort:
    Wien
    Zustimmungen:
    16
    Kekse:
    3.061
    Erstellt: 29.02.08   #2
    hat wirklich niemand eine idee dazu?
     
  3. Hans_3

    Hans_3 High Competence Award HCA

    Im Board seit:
    09.11.03
    Beiträge:
    16.149
    Zustimmungen:
    1.124
    Kekse:
    49.622
    Erstellt: 29.02.08   #3
    Für die Tabsuche helfen halt die einschlägigen Adressen oder Google. Und wenn's nix gibt, dann gibt's halt nix.

    Ich höre und sehe den Anfang übrigens so:

    11/12--11/12--10h11p10/8--10--8--11/12--/slide down-
    -------------------------------------------------------
    -8/9-----8/9----------------7-------8/9----/slide down-


    ----8--10--8h10-12--11/10p8-----------------------
    10-----------------------------10 /slide down-------------

    / = slides

    Die Oktaven am Anfang sind übrigens bei 0:50 deutlicher als am Anfang des Videos zu sehen und zu hören.
     
  4. foxy-s

    foxy-s Registrierter Benutzer

    Im Board seit:
    19.05.06
    Zuletzt hier:
    12.10.16
    Beiträge:
    448
    Ort:
    MUC
    Zustimmungen:
    9
    Kekse:
    151
    Erstellt: 29.02.08   #4
    Ist alles Improvisiert.....

    Wes Montgomery lässt grüßen , gefällt mir sehr gut , ist so ne art Smooth Jazz .

    Hans hat das gut rausgehört- gesehen , aber mit Noten kommt man da nicht viel weiter.

    Die meisten werden wohl nach fertigen Solos spielen und die wenigen die improvisieren können sind kaum gefragt.

    mfg
     
  5. Hans_3

    Hans_3 High Competence Award HCA

    Im Board seit:
    09.11.03
    Beiträge:
    16.149
    Zustimmungen:
    1.124
    Kekse:
    49.622
    Erstellt: 29.02.08   #5
    Die späteren Soli und Fills schon, aber die Introthemen stehen fest. Andere Aufnahme davon:

    http://www.youtube.com/watch?v=15FqJRc8nh4

    Schönes Stück, es fließt gut und hat ordentlich Dampf in der Rhythmusgruppe.
     
  6. SteveVai

    SteveVai Threadersteller Registrierter Benutzer

    Im Board seit:
    08.12.05
    Zuletzt hier:
    16.11.14
    Beiträge:
    1.295
    Ort:
    Wien
    Zustimmungen:
    16
    Kekse:
    3.061
    Erstellt: 29.02.08   #6
    danke für die hilfe *bewert* :great:
     
Die Seite wird geladen...

mapping